» » »

Deeper Underground Bass tabs (ver.4)

Artists:  A B C D E F G H I J K L M N O P Q R S T U V W X Y Z # 

Deeper Underground Bass tabs (ver.4)

Jamiroquai
Rating:
5/5 (1 vote)
Tabs too difficult? Try these video lessons and learn fast.
                


Sign up to the my mailing list on my site to get hold of my 50 Essential Function Band 
Tabs for the Working Bass Player!

INTRO (Distortion)
x2
G|---------------------------------------------------|
D|---------------------------------------------------|
A|---------------------9--7---------9/10--7h9p7------|
E|--9--7h9--7--10-10---------9--9---------------9p7--|
x1
G|----------------------------------------------------|
D|----------------------------------------------------|
A|----------------------9--7---------9/10--7h9p7------|
E|--9--7h9--7--10-10-0--------9--9---------------9p7--|
x1
G|---------------------------------------------------|
D|-------------------------------------8/9-----------|
A|----------------------9--7---------------7h9p7-----|
E|--9--7h9--7--10-10----------9--9--------------9p7--|


VERSE ONE x2
G|---------------------------------------------------|
D|---------------------------------------------------|
A|---------------------9--7---------9/10--7h9p7------|
E|--9--7h9--7--10-10---------9--9---------------9p7--|

G|--------------------------------------------------|
D|----------------------------------8/9-------------|
A|----------------------9--7-------------7h9p7------|
E|--9--7h9--7--10-10---------9--9--------------9p7--|


CHORUS
x1
G|------------------------------------------------------7-----6--|
D|--------------------------------------------2------------------|
A|----------------------------------/9---------------5-----4-----|
E|--9~---99~---99~----9-8~----5------------0---------------------|
x3
G|------------------------------------------------------7-----6--|
D|--------------------------------------------2------------------|
A|--4~----44~----44~-----4-3~-------/9~--------------5-----4-----|
E|----------------------------5~-----------0---------------------|


REPEAT INTRO


VERSE TWO
G|---------------------------------------------------|
D|---------------------------------------------------|
A|---------------------9--7---------9/10--7h9p7------|
E|--9--7h9--7--10-10---------9--9---------------9p7--|

G|--------------------------------------------------|
D|--------------------------------------------------|
A|---------------------9--7---------6-7-9-7-6-------|
E|--9--7h9--7--10-10--------9--9--------------9--7--|
x1
|----------------------------------------------------|
D|---------------------------------------------------|
A|---------------------9--7---------9/10--7h9p7------|
E|--9--7h9--7--10-10-0-------9--9---------------9p7--|

G|--------------------------------------------------|
D|----------------------------------8/9-------------|
A|---------------------9--7--------------7h9p7------|
E|--9--7h9--7--10-10---------9--9--------------9p7--|


REPEAT CHORUS


BRIDGE
G|-------------------------------------------|
D|-------3~----2~--------------3~----2~------|
A|--4~--------------1~----4~--------------1~-|
E|-------------------------------------------|


(CLEAN)
G|-------------------------------------------------------------|
D|-------------------------------------------------------------|
A|------------------------9----7------------7/9--7/9--7--------|
E|--9---7h9----7--10-10--------------9--9-----------------9p7--|

G|---------------------------------------------------|
D|---------------------------------------------------|
A|---------------------9--7---------9/10--7h9p7------|
E|--9--7h9--7--10-10---------9--9---------------9p7--|

G|---------------------------------------------------|
D|---------------------------------------------------|
A|---------------------9--7---------9/10--7h9p7------|
E|--9--7h9--7--10-10---------9--9---------------9p7--|

G|------------------------------------------|
D|------------------------------------------|
A|----------------------9--7----------------|
E|--9--7h9--7--10-10-0--------9--9----------|


VERSE THREE (Distortion)
x3
G|---------------------------------------------------|
D|---------------------------------------------------|
A|---------------------9--7---------9/10--7h9p7------|
E|--9--7h9--7--10-10---------9--9---------------9p7--|
x1
G|----------------------------------4--------------|
D|------------------------------------4--4---------|
A|----------------------9--7------------4--4-------|
E|--9--7h9--7--10-10---------9--9------------4-----|


LAST CHORUS
x8
G|------------------------------------------------------7-----6--|
D|--------------------------------------------2------------------|
A|--4~----44~----44~-----4-3~-------/9~--------------5-----4-----|
E|----------------------------5~-----------0---------------------|



| /  slide up
| \  slide down
| h  hammer-on
| p  pull-off
| ~  vibrato
| +  harmonic
| x  Mute note
| S  Slap
| P  Pop
            
Tabs too difficult? Try these video lessons and learn fast.


comments powered by Disqus
↑ Back to top | Tablatures and chords are parodies/interpretations of the original songs. You may use it for private study, scholarship, research or language learning purposes only