» » »

Jamiroquai, Butterfly Bass tabs (ver.1)

Artists:  A B C D E F G H I J K L M N O P Q R S T U V W X Y Z # 

Butterfly Bass tabs (ver.1)

Jamiroquai Tabs
 Rating:
4.2/5 (5 votes)
Butterfly lessons Tabs too difficult? Try these video lessons and learn fast
                Verse 1
|---------------------1-|---------------1-------|-----------------------|-----------------1-1---|
|-4-4-----4-----2-------|-4----------2----------|-----------------1-1---|---------2-2---2------2|
|------------4-----4----|---------4--------2--4-|-------2-4-4---4-------|-------4---------------|
|-----------------------|-----------------------|-----------------------|-----------------------|
 
|---------------------1-|---------------1-------|-----------------------|---------------------1-|
|-4-4-----4-----2-------|-4----------2----------|-----------------1-1---|--------1-2--2--4------|
|------------4-----4----|---------4--------2--4-|-------2-4-4---4-------|-------4-----------4---|
|-----------------------|-----------------------|-----------------------|-----------------------|

|---------------------1-|---------------1-------|-----------------------|---------------------1-|
|-4-4-----4-----2-------|-4----------2----------|-----------------1-1---|--------1-2--2--4------|
|------------4-----4----|---------4--------2--4-|-------2-4-4---4-------|-------4-----------4---|
|-----------------------|-----------------------|-----------------------|-----------------------|

|---------------------1-|---------------1-------|-----------------------|-----------------1-1---|
|-4-4-----4-----2-------|-4----------2----------|-----------------1-1---|---------2-2---2------2|
|------------4-----4----|---------4--------2--4-|-------2-4-4---4-------|-------4---------------|
|-----------------------|-----------------------|-----------------------|-----------------------|

|---------------------1-|---------------1-------|-----------------------|---------------------1-|
|-4-4-----4-----2-------|-4----------2----------|-----------------1-1---|--------1-2--2--4---2--|
|------------4-----4----|---------4--------2--4-|-------2-4-4---4-------|-------4-----------4---|
|-----------------------|-----------------------|-----------------------|-----------------------|

|---------------------1-|---------------1-------|-----------------------|-----------------1-1---|
|-4-4-----4-----2-------|-4----------2----------|-----------------1-1---|-----------------------|
|------------4-----4----|---------4--------2--4-|-------2-4-4---4-------|-------2-4-4---4-------|
|-----------------------|-----------------------|-----------------------|-----------------------|

 Chorus 1
|----3---3--------------|-----------------------|-3--3---3--3-----------|-----------------------|
|-----------------0-3-4-|5--5---5---5-----------|3--3------3------0-3-4-|5--5---5---5-----------|
|-----------------------|---------5-------------|-----------------------|---------5-------------|
|-----------------------|-----------------------|-----------------------|-----------------------|

|----3---3--3-----------|-----------------------|-3--3---3--3-----------|-----------------------|
|-----------------0-3-4-|5--5---5---5-----------|3--3------3------0-3-4-|5--5-----5-5-----------|
|-----------------------|---------5-------------|-----------------------|-----------------------|
|-----------------------|-----------------------|-----------------------|-----------------------|

|----3---3--3-----------|--------------------1p2|-3--3---3--3-----------|-----------------------|
|-----------------0-3-4-|5--5---5---5-----------|---3------3------0-3-4-|5--5-----3-5-----------|
|-----------------------|---------5-------------|-----------------------|-------5---------------|
|-----------------------|-----------------------|-----------------------|-----------------------|
                                                   Break (4 times)
|----3---3-33-----------|-----------------------| |--------------------------| 
|-----------------0-3-4-|5--5---5---5-----------| |--8/98/98/9--/8-8-(8-8)-| (8-8) Add these two when
|-----------------------|---------5-------------| |--------------------------| going back into verse.
|-----------------------|-----------------------| |--------------------------|

 Verse 2
|---------------------1-|---------------1-------|-----------------------|-----------------1-1---|
|-4-4-----4-----2-------|-4----------2----------|-----------------1-1---|---------2-2---2------2|
|------------4-----4----|---------4--------2--4-|-------2-4-4---4-------|-------4---------------|
|-----------------------|-----------------------|-----------------------|-----------------------|

|---------------------1-|---------------1-------|-----------------------|-----------------1-1---|
|-4-4-----4-----2-------|-4----------2----------|-----------------1-1---|-----------------------|
|------------4-----4----|---------4--------2--4-|-------2-4-4---4-------|-------2-4-4---4-------|
|-----------------------|-----------------------|-----------------------|-----------------------|

|---------------------1-|---------------1-------|-----------------------|---------------------1-|
|-4-4-----4-----2-------|-4----------2----------|-----------------1-1---|--------1-2--2--4---2--|
|------------4-----4----|---------4--------2--4-|-------2-4-4---4-------|-------4-----------4---|
|-----------------------|-----------------------|-----------------------|-----------------------|

|---------------------1-|---------------1-------|-----------------------|---------------------1-|
|-4-4-----4-----2-------|-4----------2----------|-----------------1-1---|---------1-1----2---2--|
|------------4-----4----|---------4--------2--4-|-------2-4-4---4-------|-------4------4---4----|
|-----------------------|-----------------------|-----------------------|-----------------------|

|---------------------1-|---------------1-------|-----------------------|-----------------1-1---|
|-4-4-----4-----2-------|-4----------2----------|-----------------1-1---|---------2-2---2------2|
|------------4-----4----|---------4--------2--4-|-------2-4-4---4-------|-------4---------------|
|-----------------------|-----------------------|-----------------------|-----------------------|

|---------------------1-|---------------1-------|-----------------------|-----------------1-1---|
|-4-4-----4-----2-------|-4----------2----------|-----------------1-1---|-----------------------|
|------------4-----4----|---------4--------2--4-|-------2-4-4---4-------|-------2-4-4---4-------|
|-----------------------|-----------------------|-----------------------|-----------------------|

 Chorus 2
|-----------------------|-----------------------|-3--3---3--3-----------|-----------------------|
|----3---3--3-----0-3-4-|5--5---5---5-----------|---3------3------0-3-4-|5--5---5---5-----------|
|-----------------------|---------5-------------|-----------------------|---------5-------------|
|-----------------------|-----------------------|-----------------------|-----------------------|

|----3---3--------------|-----------------------|-3--3---3--3-----------|-----------------------|
|-----------------0-3-4-|5--5---5---5-----------|3--3------3------0-3-4-|5--5-----5-5-----------|
|-----------------------|---------5-------------|-----------------------|-----------------------|
|-----------------------|-----------------------|-----------------------|-----------------------|

|----3---3--3-----------|--------------------1p2|-3--3---3--3-----------|-----------------------|
|-----------------0-3-4-|5--5---5---5-----------|---3------3------0-3-4-|5--5---5---5-----------|
|-----------------------|---------5-------------|-----------------------|---------5-------------|
|-----------------------|-----------------------|-----------------------|-----------------------|
                                                   Outro (until fade-out)
|----3---3-33-----------|-----------------------| |--------------------------| 
|-----------------0-3-4-|5--5---5---5-----------| |--8/98/98/9--/8-8-------| 
|-----------------------|---------5-------------| |--------------------------| 
|-----------------------|-----------------------| |--------------------------|
            
Submit corrections

comments powered by Disqus
↑ Back to top | Jamiroquai Bass for Butterfly. Lyrics for acoustic guitar and electric guitar. Tablatures and chords are parodies/interpretations of the original songs. You may use it for private study, scholarship, research or language learning purposes only