» » »

Jamiroquai, Black Devil Car Bass tabs (ver.1)

Artists:  A B C D E F G H I J K L M N O P Q R S T U V W X Y Z # 

Black Devil Car Bass tabs (ver.1)

Jamiroquai Tabs
 Rating:
4.2/5 (5 votes)
Black Devil Car lessons Tabs too difficult? Try these video lessons and learn fast
                Yo!!!!!!!!!!! i couldnt find any tab for this song :( so made my version of
the tab :) it sounded diffecult, but its by far that ! haha. anyway heres 
my version :) Stuart Zender is still the best Iroquai bass player tbh ! 
Peace ! AJ !

Normal Tuning 
G|
D|
A|
E|

Intro
|---9---|
|-------|
|-7---7-|
|-------|

Verse                                               On the 4th
|----------------------------|-----12----9---|     |-------12-----9--|
|------------5----3----------|---------------|     |-----12-----9----|
|---------/5---/3----5--5--3-|-/10-----7---7-| x4  |--/10-----7------|
|-7---5----------------------|---------------|     |-----------------|

Chorus
|-------------------------7----5-------------------------|
|---9----7----5----3----------------------3--5--b5--3--5-|
|-----------------------5----3----2----5-----------------| x4
|-7----5----3----1---------------------------------------|

Verse                                               On the 4th
|----------------------------|-----12----9---|     |-----------------|
|------------5----3----------|---------------|     |-5-5-5-5---------|
|---------/5---/3----5--5--3-|-/10-----7---7-| x4  |---------7-7-7-7-|
|-7---5----------------------|---------------|     |-----------------|

Chorus
|-------------------------7----5-------------------------|
|---9----7----5----3----------------------3--5--b5--3--5-|
|-----------------------5----3----2----5-----------------| x4
|-7----5----3----1---------------------------------------|

Interlude 
|-------------------------7----5-------------------------|
|---9----7----5----3----------------------3--5--b5--3--5-|
|-----------------------5----3----2----5-----------------| x2
|-7----5----3----1---------------------------------------|

Brake
|--------------------|
|--------------------|
|--------------5--5--| x2
|--7-7---------------|

Verse                                              
|----------------------------|-----12----9---|     
|------------5----3----------|---------------|     
|---------/5---/3----5--5--3-|-/10-----7---7-| x2  
|-7---5----------------------|---------------| 

Chorus
|-------------------------7----5-------------------------|
|---9----7----5----3----------------------3--5--b5--3--5-|
|-----------------------5----3----2----5-----------------| xtill it fades :)
|-7----5----3----1---------------------------------------|
            
Submit corrections

comments powered by Disqus
↑ Back to top | Jamiroquai Bass for Black Devil Car. Lyrics for acoustic guitar and electric guitar. Tablatures and chords are parodies/interpretations of the original songs. You may use it for private study, scholarship, research or language learning purposes only