>
 >
All Good In The Hood

All Good In The Hood Bass Tabs

Jamiroquai - All Good In The Hood chords, tabs, tablatures, lyrics

Guitar lessons | Add/correct | Request | Top 50 tabs Artists:  A B C D E F G H I J K L M N O P Q R S T U V W X Y Z 0-9

All Good In The Hood Bass Tabs – Jamiroquai

CD, Sheet music, Poster

Do you like All Good In The Hood? Share with your friends now
Bass Tabs
I dont mind taking requests for bass tabs and will try my best to get 
them accurate, especially if the song is good and worth doing!
Just leave a message on my profile wall.

-----------------------------------------------------------------------------
-----------------------------------------------------------------------------


Tuning: Standard

Intro

G|--------------------------------------------------------------------------|
D|--------------------------------------------------------------------------|
A|------------------------------5-------------------------------------------|
E|-0--0--0--0--0--0--0--5-5-7-7---7-----------------------------------------|

G|--------------------------------------------------------------------------|
D|--------------------------------------------------------------------------|
A|---------------5h7---5h7--------------------------------------------------|
E|-0--0--0--0--0----0-----0--0----------------------------------------------|

Verse 1

  'Don't kick me when you know I'm down...'

G|------------------------5h7-7-7--5-5--------------------------------------|
D|--------------------7-7------------------------------------5-7-4----------|
A|--------10\\\5-5----------------------3--5--3--5-3-2-2---7-------7-5------|
E|-0-0-----------------------------------------------------------------5-5--|

              'Throwing them at me again.'

G|-----------------------7-9-9----------------------------------------------|
D|-----------------------------9--------------------------------------------|
A|---------------------5----------7--------5---5-5-5h7------5///10\\\-------|
E|-5-5-7-7-5-5-3-3------------------0--------7---------0--------------------|

  'Don't let me see you with a sad face...'

G|-----------------------7-----3h5------------------------------------------|
D|------------5------------------------------------------------------5h7----|
A|---5h7--5h7---7--5-5-------3-----3---3h5-0-1-2-2---2-0-2--5---------------|
E|-0----------------------------------------------------------7-5-5---------|

            'Thats the way its always been'

G|--------------------------------------------------------------------------|
D|--5-7-5-------------------------------------------------------------------|
A|--------7--------------------------------7-----5---5-5-5h7----------------|
E|----------3-3------------------------------0---------------0--------------|

  'You know that it's'

G|-----7----------------|
D|----------------------|
A|-5h7------------------|
E|----------------------|

Chorus 1

  'All good in the hood tonight...'

G|--------------8-8---------------7-7-----------------------------------6-6-|
D|--------------------------------------------------------------------------|
A|-6--6-6--6-6-------5--5-5--5-5------5h7---------7-7----5-4--4-4--4-4------|
E|----------------------------------------0--0-0-------7--------------------|

  'Did I forget to mention...'

G|---5-5-----------------------------------7h9--------7h9-------------------|
D|---------------------------------------------7h9--------------------------|
A|-3-----3-3--3-3------------5--5----7--7----------7------5h7-----5h7-------|
E|-----------------5--5--5-5----------------------------------0-------0--0--|

  'Some pain...'

G|--------------8-8---------------7-7-----------------------------6-6-------|
D|--------------------------------------------------------------------------|
A|-6--6-6--6-6-------5--5-5--5-5------5h7-----------7-4-5-4--4-4------4-4---|
E|----------------------------------------0--0-0--7-------------------------|

  'That's the pain you're tasting...'

G|-------------5-5-------------7-7-----------------7h9----------------------|
D|-----------------------------------------------------7h9------------------|
A|-3--3-3--3-3---------------5-----5-5h7----5-5h7----------7--5-5h7---------|
E|-----------------5--5--5-5-------------0--------------------------0-------|

Verse 2

  'Oh mercy mercy...'

G|------------------------5h7-7-7--5-5--------------------------------------|
D|--------------------7-7------------------------------------5-7-4----------|
A|--------5//10\\5-5--------------------3--5--3--5-3-2-2---7-------7-5------|
E|-0-0-----------------------------------------------------------------5-5--|

              'I feel that rage...'

G|----------------------7-9-9-----------------------------------------------|
D|----------------------------9---------------------------------------------|
A|------------------5-5----------7-7-------5---5-5-5h7------5///10\\\-------|
E|-5-5-7-7-5-5-3-3-------------------0-------7---------0--------------------|

  'This is the storm you love...'

G|-----------------------------3h5------------------------------------------|
D|------------5------------------------------------------------------5h7----|
A|---5h7--5h7---7--5-5-------3-----3---3h5-0-1-2-2---2-0-2--5---------------|
E|-0----------------------------------------------------------7-5-5---------|

       'On my window pane'

G|-------------------------------9-7----------7h9------8--------------------|
D|--------------------------------------------------------------------------|
A|-------------------------5h7--------5-5h7-------5h7-----------------------|
E|-5-4-3-3---------------------0------------0-------------------------------|

Chorus 2

  'All good in the hood tonight...'

G|--------------8-8---------------7-7-------------------------------6-6-----|
D|--------------------------------------------------------------------------|
A|-6--6-6--6-6-------5--5-5--5-5------5h7---------7-7----5-4--4-4-4----4-4--|
E|----------------------------------------0--0-0-------7--------------------|

  'Did I forget to mention...'

G|---5-5-----------------------------------7h9--------7h9-------------------|
D|---------------------------------------------7h9--------------------------|
A|-3-----3-3--3-3---------3---5--5---5h7-----------7------5h7-----5h7-------|
E|-----------------5--5-5---5------------0--------------------0-------0--0--|

  'Some pain...'

G|--------------8-8---------------7-7----------------------------------6-6--|
D|--------------------------------------------------------------------------|
A|-6--6-6--6-6-------5--5-5--5-5------5h7-----------7-4-5-4--4-4--4-4-------|
E|----------------------------------------0--0-0--7-------------------------|

  'That's the pain you're tasting...'

G|--------5-5---------------------------------------------------------------|
D|--------------------------------------------------------------------------|
A|-3--3-3-----3-3---------3---5--5-5----------------------------------------|
E|-----------------5--5-5---5-----------------------------------------------|

Break

'Walking out on me...

G|------------------------5h7-7-7--5-5--------------------------------------|
D|--------------------7-7-------------------3---------------7h9-7-----------|
A|--------5//10\\5-5--------------------3-5---3--5-3-2-2----------9---------|
E|-0-0-----------------------------------------------------------------5-5--|


G|--------------------7-9-9-------------------------------------------------|
D|-5h7----------------------9-----------------------------------------------|
A|----------------5-5---------7---------------------------------------------|
E|------5-4-3-3-------------------------------------------------------------|

G|--------------------------------------------------------------------------|
D|--------------------------------------------------------------------------|
A|------------------------------5-------------------------------------------|
E|-0--0--0--0--0--0--0--5-5-7-7---7-----------------------------------------|

G|--------------------------------------------------------------------------|
D|--------------------------------------------------------------------------|
A|---------------5h7---5h7--------------------------------------------------|
E|-0--0--0--0--0----0-----0--0----------------------------------------------|

Chorus 3

  'All good in the hood tonight...'

G|--------------8-8---------------7-7-------------------------------6-6-----|
D|----------------------------------------------------------------6---------|
A|-6--6-6--6-6-------5--5-5--5-5------5h7---------7-7----5-4--4-4------4-4--|
E|----------------------------------------0--0-0-------7--------------------|

  'Did I forget to mention...'

G|---5-5-----------------------------------7h9--------7h9-------------------|
D|---------------------------------------------7h9--------------------------|
A|-3-----3-3--3-3---------3---5--5---5h7-----------7------5h7-----5h7-------|
E|-----------------5--5-5---5------------0--------------------0-------0--0--|

  'Some pain...'

G|--------------8-8---------------7-7-----------------------------6-6-------|
D|--------------------------------------------------------------------------|
A|-6--6-6--6-6-------5--5-5--5-5------5h7-----------7-4-5-4--4-4-------4-4--|
E|----------------------------------------0--0-0--7-------------------------|

  'That's the pain you're tasting...'

G|--------5-5---------------------------------------------------------------|
D|--------------------------------------------------------------------------|
A|-3--3-3-----3-3---------3---5--5-5----------------------------------------|
E|-----------------5--5-5---5-----------------------------------------------|

Outro

'Walking out on me...

G|------------------------5h7-7-7--5-5--------------------------------------|
D|--------------------7-7-------------------3---------------7h9-7-----------|
A|--------5//10\\5-5--------------------3-5---3--5-3-2-2----------9---------|
E|-0-0-----------------------------------------------------------------5-5--|


G|--------------------7-9-9-------------------------------------------------|
D|-5h7----------------------9-----------------------------------------------|
A|----------------5-5---------7---------------------------------------------|
E|------5-4-3-3-------------------------------------------------------------|

Repeat outro during fade out.

Bloody difficult song to get right.
Ive listened to the song at half speed and im pretty sure this is accurate!


| /  slide up
| \  slide down
| h  hammer-on
| p  pull-off
| ~  vibrato
| +  harmonic
| x  Mute note
=============================================================================





Comments


Popular Jamiroquai tabs & chords
Black Capricorn Day 1 Bass Tabs
Canned Heat 1 Bass Tabs
Didgin' Out Bass Tabs
Revolution 1993 4 Bass Tabs
Soul Education 2 Bass Tabs
Too Young Too Die Bass Tabs
Alright Chords
Love Foolosophy 2 Chords
Rock Dust Light Star Ukulele
Starchild Ukulele


Song lyrics



↑ Back to top | Tablatures and chords are parodies/interpretations of the original songs. You may use it for private study, scholarship, research or language learning purposes only
© 2014 AZChords.com Contact us | Privacy policy | DMCA | Add/correct tabs | Request tabs | Top 50 tabs