» » »

Jamie T, Jilly Armeen Tabs (ver.2)

Artists:  A B C D E F G H I J K L M N O P Q R S T U V W X Y Z # 

Jilly Armeen Tabs (ver.2)

Jamie T Tabs
 Rating:
3.7/5 (6 votes)
Jilly Armeen lessons Tabs too difficult? Try these video lessons and learn fast
                Album:kings and Queens


ok well last time i tabed it, it was definatley wrong i've figuerd it out since then though.
i play it two different ways

version 1
all you really need to do is have ur hand in this chord shape and the pluck the
strings that need plucking

e-----------|
b--6--------|
g-----------|
d--7--------|
a--8--------|
E-----------|

but have your first finger on as a bar on fret 5 and have ur pinky on fret 8 on string A


e--------------------------------------------------------------------------|
b-------66-----66-----66--------66-----------------------------------------|
g--------------------------------------------------------------------------|
d-----------7-7--7---------------------------------------------------------|
a----8-8--8--------5-5---5--7-7---7----------------------------------------|
E--------------------------------------------------------------------------|
and just repeat that throughout the song


Version 2

another way i find easier is this:

e---------------------------------------------------------|
b-------------------------------6-6------6-6--------------|
g-----10-10--------10-10----------------------------------|
d---------------------------------------------------------|
a--8-8-----8--12-12-----12---5-5---5--7-7---7-------------|
E---------------------------------------------------------|
and then just repeat throughout the whole song
            
Submit corrections

comments powered by Disqus
↑ Back to top | Jamie T Tabs for Jilly Armeen. Lyrics for acoustic guitar and electric guitar. Tablatures and chords are parodies/interpretations of the original songs. You may use it for private study, scholarship, research or language learning purposes only