» » »

Ike And Tina Bass tabs (ver.1)

Artists:  A B C D E F G H I J K L M N O P Q R S T U V W X Y Z # 

Ike And Tina Bass tabs (ver.1)

Jamie T
Rating:
4/5 (3 votes)

Hard to play? Try these video lessons and learn fast.
                
Tuning: standard

intro

G|-----------------------------------------------------------------------|
D|-----10--5--------10--5--------10--5--------10-------------------------|
A|--8------------8------------8------------8-----------------------------|
E|-----------------------------------------------------------------------|

verse

G|-----------------------------------------------------------------------|
D|---------5-5-5-5-7-7-7-7-7-7-7-7---------------------------------------|
A|-8-8-8-8-------------------------8-8-8-8-7-7-7-7-5-5-5-5-5-5-5-5-------|
E|-----------------------------------------------------------------------|

use the verse all the way through, just double time it where needed. rate it, you know you want to
            
Hard to play? Try these video lessons and learn fast. | Correct




comments powered by Disqus
↑ Back to top | Tablatures and chords are parodies/interpretations of the original songs. You may use it for private study, scholarship, research or language learning purposes only