» » »

Jamie T, Calm Down Dearest Bass tabs (ver.2)

Artists:  A B C D E F G H I J K L M N O P Q R S T U V W X Y Z # 

Calm Down Dearest Bass tabs (ver.2)

Jamie T Tabs
 Rating:
4/5 (4 votes)
Calm Down Dearest lessons Tabs too difficult? Try these video lessons and learn fast
                                            Jamie T

        Calm Down Dearest


sure this is exactly what plays but bear in mind its on a acoustic bass and wont sound any 
on a normal electric bass.



G|-----7----------7---------7---------------------------------------------|
D|----(5)--------(5)-------(5)--------------------------------------------|
A|-----5----------5---------5---------------------------------------------|
E|----------------7---------5---------------------------------------------|

He just strums these pretty much throughout the whole song, im not sure wther he adds 
(5)'s in because he plays it so quet but it makes the same sound pretty much whatever you 
So its up to you.

G|-------7-/-12-/-11-/-9-/-11-/-9-------------------------------------|
D|-------0-/-0--/-0--/-0-/-0--/-0-------------------------------------|
A|--------------------------------------------------------------------|
E|--------------------------------------------------------------------|

Just strum them, if youv seen the video im sure youll understand but thats not exactly 
he does it, its just alot to tab out if i was gonna put it exactly how it is, and im fat 
lazy.

Well thats my attempt, hope its better then the other tabs iv made a mess of, cheers.
            
Submit corrections

comments powered by Disqus
↑ Back to top | Jamie T Bass for Calm Down Dearest. Lyrics for acoustic guitar and electric guitar. Tablatures and chords are parodies/interpretations of the original songs. You may use it for private study, scholarship, research or language learning purposes only