» » »

Jamies Elsewhere, Visions In Sleep Tabs (ver.1)

Artists:  A B C D E F G H I J K L M N O P Q R S T U V W X Y Z # 

Visions In Sleep Tabs (ver.1)

Jamies Elsewhere Tabs
Rating:
4/5 (1 vote)
Visions In Sleep lessons Tabs too difficult? Try these video lessons and learn fast
                              Band: Jamies Elsewhere    Song: Visions In Sleep
                        


This is the first tab that i have tabed so comments please! ENJOI!

Tuning:C#G#C#F#A#D#


intro: Fades in
|-------------------------------------------------------------------------|
|-------------------------------------------------------------------------|
|-------------------------------------------------------------------------|
|-10/000-000-0-10/-000-000-10101010/----(figure out the pattern)----------|
|-8/-000-000-0-8/--000-000-8-8-8-8/---------------------------------------|
|-8/-000-000-0-8/--000-000-8-8-8-8/---------------------------------------|
pm   ... ... .     ... ...     

Verse: 0:22
|-------------------------------------------------------|
|----------------------------------------11-11-11-------|
|----------------------------------------14-14-14-------|
|-0---------------0-0-0---------------0-----------------|
|-0------7-5------0-0-0-------7-5-----0-----------------|
|-0-000-8---8750--0-0-0--000-8---8750-0-----------------|
pm  ...                  ...
                                           
|--------------------------------------------------|
|--------------------------------------------------|
|--------------------------------------------------|
|-0---------------0-0-0--55555-10101010------------|  (Play twice)
|-0------7-5------0-0-0--33333-888888--------------|
|-0-000-8---8750--0-0-0--------888888--------------|
    ...

Chorus: 1st guitar
|----------------------------------------------------------------------|
|----------------------------------------------------------------------|
|----------------------------------------------------------------------|
|---000000000-3333333333-5555555555-333333333--------------------------|
|---000000000-3333333333-3333333333-111111111-------5-8-4--------------|
|---000000000-3333333333--------------------------0------0-578---------|
p.m                                               .      .
       2nd guitar
|--------------------------------------------------------------------------|
|--------------------------------------------------------13-----13/16-15~--|
|10-9----------------------10-9----------------------10-9--10-9------------|
|----10-7-0-7-078-07-07 10-----10-7-0-7-078-07-07-10-----------------------|
|--------------------------------------------------------------------------|
|--------------------------------------------------------------------------|

|---------------------------------------|
|---------------------------------------|
|---------------------------------------|
|---------------------------------------|
|---------------------------------------|
|-000-000--000--000-000-000-000--000-00-|fades away...
pm... ...  ...  ... ... ... ...  ... ..

|-------------------------------------------------------------------------|
|-------------------------------------------------------------------------|
|-------------------------------(------------------------------------)----|
|-000-000--000--000-000-000-000--000-00-000-000--000--000-000-000-000-----|
|-000-000--000--000-000-000-000--000-00-000-000--000--000-000-000-000-----|
|-000-000--000--000-000-000-000--000-00-000-000--000--000-000-000-000-----|
pm... ...  ...  ... ... ... ...  ... .. ... ...  ...  ... ... ... ... 
  note:where the () are is what you keep playing after your done here^

Then:                                                           
|------------------------------------------------------|
|------------------------------------------------------|
|------------------------------------------------------|
|------7-8-7-------------000-000--000-0-7\8-0-8\10---|
|---------8--7h8p7-------000-000--000-0-7\8-0-8\10---|
|-000-0-----------7-8----000-000--000-0-7\8-0-8\10---|
pm... .                  ... ...  ... .     .

|---------------------------|
|---------------------------|
|--------10p9---------------|
|------10----10-------------|
|-888-8---------101010-777--|
|-888-8---------101010-777--|
pm... .

Chorus again! These dreams are temporary!

e|-------------------------------------------------------------|
B|-------------------------------------------------------------|
G|-------------------------------------------------------------|
D|-33333333333-55555555555-000-000--000-0-000-000-000-000-000--|
A|-11111111111-33333333333-000-000--000-0-000-000-000-000-000--|
E|-------------------------000-000--000-0-000-000-000-000-000--|
pm                         ... ...  ... . ... ... ... ... ...

|---------------------------------------------|
|---------------------------------------------|
|---------------------------------------------|
|-3------5------3------5-----3------5---------|
|-1(12x)-3(12x)-3------5-----1(12x)-3(12x)----|
|---------------3(12x)-5(12x)-----------------|

|--------------------------------------------------------------------|
|--------------------------------------------------------------------|
|-7-------------7--------------7-------------------------------------|
|--53-353--------53-353---3-----53-353-------------------------0-0-0-|
|----5---53--------5---535-5*-----5---53----------3------------0-0-0-|
|----------650--------------------------650----056-65-0356-----0-0-0-|

Chorus Again:

|-------------------------------------------------------------------------|
|-------------------------------------------------------------------------|
|-------------------------------------------------------------------------|
|-10/000-000-0-10/-000-000-10101010/--------------------------------------|
|-8/-000-000-0-8/--000-000-8-8-8-8/---------------------------------------|
|-8/-000-000-0-8/--000-000-8-8-8-8/---------------------------------------|
pm   ... ... .     ... ...      

Fades away!!                     THE END! 
    

************************************
Legend:
| /   slide up
| \   slide down
| h   hammer-on
| p   pull-off
| *   pinch harmonic
| .   palm mute
| b   Bend
************************************
            

comments powered by Disqus
↑ Back to top | Jamies Elsewhere Tabs for Visions In Sleep. Lyrics for acoustic guitar and electric guitar. Tablatures and chords are parodies/interpretations of the original songs. You may use it for private study, scholarship, research or language learning purposes only