>
 >
The Lighthouse

The Lighthouse Guitar Tabs

Jamies Elsewhere - The Lighthouse chords, tabs, tablatures, lyrics

Guitar lessons | Add/correct | Request | Top 50 tabs Artists:  A B C D E F G H I J K L M N O P Q R S T U V W X Y Z 0-9

The Lighthouse Guitar Tabs – Jamies Elsewhere

CD, Sheet music, Poster

Do you like The Lighthouse? Share with your friends now
Tabs

T = tap (right hand)
pm * = palm mute
~ = let ring
x = mute

Intro (not on guitar and it's not completely right)

00:00 - 00:05

D#|----------------------------------------------------| x2
A#|-*-------T---------T------------T----------------*--|
F#|----9h10-15p9-9h10-15p9h10p910--15p9h10p9-----------|
C#|------------------------------------------h10h12----|
G#|-*-----------------------------------------------*--|
C#|----------------------------------------------------|

00:05 - 00:26

D#|-----------------------------------------------------------------------------------------| x2
A#|-*-------6-6-6-6-6-6----------6-6--------------6-6-6-6-6-------------------------------*-|
F#|----------9-9-9-9-9------------9----------------9-9-9-9-------------------10-9-----------|
C#|----8888--------------8-8-888-----101010--0000--------------3------3---3------10---------|
G#|-*--8888--------------8-8-888-----101010--0000--------------3----3---3----------10-12--*-|
C#|----8888--------------8-8-888-----101010--0000------------3-3-333-3----------------------|
pm                                                           *   *** *

00:26 - 00:47

D#|------------------------------------------------|
A#|-*----------------------------------------------|
F#|----17------17------17----17------17------17----|
C#|-------1515----1515----15----1515----1515----15-|
G#|-*----------------------------------------------|
C#|------------------------------------------------|
pm        * *     * *     *     * *     * *     *

D#|-------------------------------------------------|
A#|-------------------------------------------------|
F#|--14------14------14----12------12------12-------|
C#|-----1515----1515----15----1515----1515----15----|
G#|-------------------------------------------------|
C#|-------------------------------------------------|
pm      * *     * *     *     * *     * *     *

D#|----------------------------------------------|
A#|----------------------------------------------|
F#|--17------17------17----17------17------17----|
C#|-----1515----1515----15----1515----1515----15-|
G#|----------------------------------------------|
C#|----------------------------------------------|
pm      * *     * *     *     * *     * *     *

D#|------------------------------|
A#|--17------17----17----------*-| x2
F#|-----1515----15---------------|
C#|-------------------5-555555---|
G#|-------------------5-555555-*-|
C#|-------------------5-555555---|

00:47 : 00:52

D#|-----------------------------------------------------------|
A#|-----------------------------------------------------------|
F#|-10101010101010101010101010101010-1212121212121212-999999--|
C#|-x-x-x-x-x-x-x-x-x-x-x-x-x-x-x-x--x-x-x-x-x-x-x-x--xxxxxx--|
G#|-8-8-8-8-8-8-8-8-8-8-8-8-8-8-8-8--1010101010101010-777777--|
C#|-----------------------------------------------------------|

00:52 - 01:14

D#|--------------------------------------------------------------------------|
A#|--------------------------------------------------------------------------|
F#|-----------------------------1010---9-99---------------------------555555-|
C#|-0000000000000000-x-000000-x-x-x--x-x-xx-8888888888888888-33333333-555555-|
G#|-0000000000000000-x-000000-x-8-8--x-7-77-8888888888888888-33333333-333333-|
C#|-0000000000000000-x-000000-x------x------8888888888888888-33333333--------|

D#|--------------------------------------------------------------------------|
A#|--------------------------------------------------------------------------|
F#|-----------------------------1010---9-99----------------------------------|
C#|-0000000000000000-x-000000-x-x-x--x-x-xx-8888888888888888-55555555-333333-|
G#|-0000000000000000-x-000000-x-8-8--x-7-77-8888888888888888-55555555-333333-|
C#|-0000000000000000-x-000000-x------x------8888888888888888-55555555-333333-|

01:14 - 01:35

D#|-----------------------------------------------------------|
A#|-----------------------------------------------------------|
F#|-------------7-7-5---------101010-999-77-12121212-14141414-|
C#|---------7h8-------7-8-7-----------------------------------|
G#|-5-3---------------------8---------------------------------|
C#|-----8-0---------------------------------------------------|

D#|----------------------------------------------------------|
A#|----------------------------------------------------------|
F#|-------------7-7-5---------141414-121212-99-10101010-9999-|
C#|---------7h8-------7-8-7----------------------------------|
G#|-5-3---------------------8--------------------------------|
C#|-----8-0--------------------------------------------------|

D#|-----------------------------------------------|
A#|-----------------------------------------------|
F#|---------------10-10-9-------------------------|
C#|---------10h12---------10-12-10---------88-3-5-|
G#|-5-3----------------------------12-8888-88-3-5-|
C#|-----8-0---------------------------8888-88-3-5-|
pm                                    ****


D#|----------------------------------------------|
A#|----------------------------------------------|
F#|---------------10-10-9------------------------|
C#|---------10h12---------10-12-10---------88-3~-|
G#|-5-3----------------------------12-8888-88-3~-|
C#|-----8-0---------------------------8888-88-3~-|
pm                                    ****

01:35 - 01:57

D#|-----------------------------------------------|
A#|-*---------------------------------------------|
F#|---17------17------17----17------17------17----|
C#|------1515----1515----15----1515----1515----15-|
G#|-*---------------------------------------------|
C#|-----------------------------------------------|
pm       * *     * *     *     * *     * *     *

D#|-------------------------------------------|
A#|-17-----17-----17----17------17------17----|
F#|-------------------------------------------|
C#|---1515---1515----15----1515----1515----15-|
G#|-------------------------------------------|
C#|-------------------------------------------|
pm    * *    * *     *     * *     * *     *

D#|---------------------------------------------|
A#|---------------------------------------------|
F#|-17------17------17----17------17------17----|
C#|----1515----1515----15----1515----1515----15-|
G#|---------------------------------------------|
C#|---------------------------------------------|
pm    * *    * *     *     * *     * *     *

D#|---------------------------------------------| x2
A#|-18-----18-----18----18------18------18----*-|
F#|---------------------------------------------|
C#|---1515---1515----15----1515----1515----15---|
G#|-------------------------------------------*-|
C#|---------------------------------------------|
pm    * *    * *     *     * *     * *     *

01:57 - 02:18

D#|--------------------------------------------------------------------------|
A#|--------------------------------------------------------------------------|
F#|-----------------------------1010---9-99---------------------------555555-|
C#|-0000000000000000-x-000000-x-x-x--x-x-xx-8888888888888888-33333333-555555-|
G#|-0000000000000000-x-000000-x-8-8--x-7-77-8888888888888888-33333333-333333-|
C#|-0000000000000000-x-000000-x------x------8888888888888888-33333333--------|

D#|--------------------------------------------------------------------------|
A#|--------------------------------------------------------------------------|
F#|-----------------------------1010---9-99----------------------------------|
C#|-0000000000000000-x-000000-x-x-x--x-x-xx-8888888888888888-55555555-333333-|
G#|-0000000000000000-x-000000-x-8-8--x-7-77-8888888888888888-55555555-333333-|
C#|-0000000000000000-x-000000-x------x------8888888888888888-55555555-333333-|

02:18 - 02:29


D#|---------------------------------------------------| x2
A#|-*----6-6-6-6-6-6-6-6-6-6-6-6-6-6-6-6-6-6-6-6-6--*-|
F#|-----9-9-9-9-9-9-9-9-9-9-9-9-9-9-9-9-9-9-9-9-9-9---|
C#|---0-----------------------------------------------|
G#|-*-0---------------------------------------------*-|
C#|---0-----------------------------------------------|

02:29 - 02:42

D#|--------------------------| x3
A#|-*----66~---------66~---*-|
F#|------99~---------99~-----|
C#|---0----------------------|
G#|-*-00------0-0-0-0------*-|
C#|---00------0-0-0-0----3---|
pm     *            *

02:42 - 02:47

D#|---------------------------------|
A#|-----66~---------66~-------------|
F#|-----99~---------99~-------------|
C#|--0------------------------------|
G#|--00------0-0-0-0----5-5-3-0-----|
C#|--00------0-0-0-0------------3-5-|
pm    *            *

02:47 - 03:04

D#|-----------------------------------| x3
A#|-*-----------6666----------------*-|
F#|-------------9999------------------|
C#|-----------------------------------|
G#|-*-0-0-00-000-----000-00-00-00-0-*-|
C#|---0-0-00-000-----000-00-00-00-0---|
pm    * * ** ***     *** ** ** ** *

03:04 - 03:10

D#|----------------------------------------|
A#|-----------6666-------------------------|
F#|-----------9999-------------------------|
C#|----------------------------------------|
G#|-0-0-00-000-----000-00-00---5-5-3-0-----|
C#|-0-0-00-000-----000-00-00-0---------3-5-|
pm  * * ** ***     *** ** ** *

03:10 - 03:20

D#|---|
A#|---|
F#|---|
C#|-0-|
G#|-0-|
C#|-0-|





Comments


Popular Jamies Elsewhere tabs & chords
Love In This Club Chords
Memories Make Good Company Chords
Out Of Love Chords
Out Of Love 1 Chords
Memories Make Good Company Tabs
Seasons Tabs
The End Of Innocence Intro Tabs
The Mapmaker Tabs
Visions In Sleep Tabs
One Foot In The Grave Ukulele


Song lyrics



↑ Back to top | Tablatures and chords are parodies/interpretations of the original songs. You may use it for private study, scholarship, research or language learning purposes only
© 2014 AZChords.com Contact us | Privacy policy | DMCA | Add/correct tabs | Request tabs | Top 50 tabs