» » »

Jamies Elsewhere, Seasons Tabs (ver.1)

Artists:  A B C D E F G H I J K L M N O P Q R S T U V W X Y Z # 

Seasons Tabs (ver.1)

Jamies Elsewhere Tabs
 Rating:
4/5 (4 votes)
Seasons lessons Tabs too difficult? Try these video lessons and learn fast
                                             Jamies Elsewhere - Seasons

I just tabed the notes and all that...u have to figure out when its played and how 
much times and ur good! Enjoy!!

Tuning:C#

Intro!
|-------------------------------------------------------|
|----6--------------6-----------------------------------|
|----9-----3--------9-----3--------------(2X)-----------|
|-0----0---7-----00---00--7-----------------------------|
|-0----0---------00---00--------------------------------|
|-0----0-----5/8-00---00----000-000---------------------|

Then!
|-----------------------------------------------|
|-----------------------------------------------|
|-----------------------------------------------|
|-000----00--3--000--------------0--------------|
|-000----00--7--000--------5-4---0--------------|
|-000-88-00-----000-88--578-8-7--0--------------|

Chorus!  figure the rhythm out 
|------------------------------------------------------------------|
|------------------------------------------------------------------|
|-xxx-------7------------------------------------------------------|
|-xxx-8--5--7--12----8--10--12--3-then--8--10--7~------------------|
|-xxx-8--5--5--10----8--10--12--3-------8--10--7~------------------|
|-xxx-8--5-----10----8--10--12--3-------8--10--7~-777-888----------|
p.m                                               ... ...

then!
|-------------------------------------------------------------------|
|-------------------------------------------------------------------|
|--------------------10h13p10---------------------------------------|
|-0-------------10-12--------12--0-----------10h12p10---------------|
|-0--8h12-7h10-------------------0--8h12-7h10--------12-10-8-10-12--|
|-0-0----0----0------------------0-0----0---------------------------|


|----------------------------------------------------------------|
|----------------------------------------------------------------|
|----10\12-------------------------------------------------------|
|-8---x--x--------------------------------------------000-8-12---|
|-8---8\10--------0-00--000-000-00-------------8/12\8-000-8-12---|
|-8--------10-7---0-00--000-000-00-10p7-00-10p7-------000-8-12---|
p.m               . ..  ... ... ..      ..

|------------------------------------------------------------------------|
|------------------------------------------------------------------------|
|------------------------------------------------------------------------|
|----------------------888-12-12-12------------------------0~other--xxxx-|
|-00-0-000-000-0-0-0-0-888-12-12-12--00-0-000-000-0-0-0-0--0~guitar-xxxx-|
|-00-0-000-000-0-0-0-0-888-12-12-12--00-0-000-000-0-0-0-0--0~-------xxxx-|
pm.. . ... ...                       .. . ... ...

Chorus Again! second part...
|--------------------------------------------------------------------|
|--------------------------------------------------------------------|
|--------------------------------------------------------------------|
|-8-8-8/10-10-10/12-12-12--3-3-3--8-8-8/10-10-10-----7---------------|
|-8-8-8/10-10-10/12-12-12--3-3-3--8-8-8/10-10-10-----7---------------|
|-8-8-8/10-10-10/12-12-12--3-3-3--8-8-8/10-10-10-----7-777-888-------|
pm                                                     ... ...

|-----------------------------------------------------------------------|
|-------------6---11----6-----------------------------------------------|
|-----3-------9---14----9-------------------(figure out the pattern)----|
|-000-5--0000--00---000---/0-000-000-0-0-0-0-00-------------------------|
|-000----0000--00---000---/0-000-000-0-0-0-0-00-------------------------|
|-000----0000--00---000---/0-000-000-0-0-0-0-00-------------------------|
pm                         . ... ... . . . . ..

|--------------------------------|
|--------------------------------|
|---------------------------xxxx-|
|-8~----10~----8~--3~--0~---xxxx-|
|-8~----10~----8~--3~--0~---xxxx-|
|-8~----10~----8~--3~--0~---xxxx-|

Chorus again!
then intro part! 
            
Submit corrections

comments powered by Disqus
↑ Back to top | Jamies Elsewhere Tabs for Seasons. Lyrics for acoustic guitar and electric guitar. Tablatures and chords are parodies/interpretations of the original songs. You may use it for private study, scholarship, research or language learning purposes only