» » »

Fly Love Tabs (ver.2)

Artists:  A B C D E F G H I J K L M N O P Q R S T U V W X Y Z # 

Fly Love Tabs (ver.2)

Jamie Foxx
Rating:
0/5 (0 votes)

Hard to play? Try these video lessons and learn fast.
                (Intro)
-------------------------------------------------------------------------------
                             Fly Love - Jamie Foxx
-------------------------------------------------------------------------------

Tuning: Standard

*whistle*

e|-------------------------------------------------------------------------------|
B|---------0--3------------------------------------------------------------------|
G|------4--------3---------------------------------------------------------------|
D|---2---------------------------------------------------------------------------|
A|-------------------------------------------------------------------------------|
E|-------------------------------------------------------------------------------|

e|--0-0-x-0-0------3-3-2-0---0-----------------------------------------------------------|
B|--0-0-x-0-0--------------3---2---------------------------------------------------------|
G|--2-2-x-2-1----------------------------------------------------------------------------|
D|--2-2-x-2-0----------------------------------------------------------------------------|
A|--0-0-x-0-0----------------------------------------------------------------------------|
E|--2-2-x-2-1------3---------------------------------------------------------------------|

that's it for now..yeah, something like that..i still don't know how to write tabs so im 
really sorry for this one..i can play it but im not good in writing it..

************************************

| /   slide up
| \   slide down
| h   hammer-on
| p   pull-off
| ~   vibrato
| +   harmonic
| x   Mute note
| b   Bend
| pb  Pre-bend
| br  Bend release
| pbr Pre-bend release
| brb Bend release bend

************************************
            
Hard to play? Try these video lessons and learn fast. | Correct




comments powered by Disqus
↑ Back to top | Tablatures and chords are parodies/interpretations of the original songs. You may use it for private study, scholarship, research or language learning purposes only