» » »

London Skies Tabs (ver.3)

Artists:  A B C D E F G H I J K L M N O P Q R S T U V W X Y Z # 

London Skies Tabs (ver.3)

Jamie Cullum
Rating:
0/5 (0 votes)

Hard to play? Try these video lessons and learn fast.
                "London Skies"
Standard Tuning
No Capo

INTRO & VERSE

E|----7---------9---7---------9-----9-------2---------------2---------------|
A|----9--7h9--8-----9--7h9--8---9-8----9-8----------------------------------|
D|---------------------------------------------6--6/7/6--4-----6--6/7/6-----|
G|--------------------------------------------------------------------------|
B|--------------------------------------------------------------------------|
e|--------------------------------------------------------------------------|

On verse there's no need to play any of the chords [(79xxxx)=(7xxxxx)]

PRE-CHORUS

Before playing the diddly starting with the second fret on the E string the second time 
play this chord:

E|-7-|
A|-6-|
D|-4-|
G|-4-|
B|-4-|
e|-4-|

I play it by hitting the low E string then strumming the rest of the strings for the 
of the bar

CHORUS

Play these chords throughout the chorus:

  C#            B

E|---|       E|---|
A|-4-|       A|-2-|
D|-6-|       D|-4-|
G|-6-|       G|-4-|
B|-6-|       B|-4-|
e|-4-|       e|-2-|

Then, at the end of the 1st and final chorus:

E|-5-7-----------|
A|-----5-6/7-----|
D|-----------4-6-|
G|---------------|
B|---------------|
e|---------------|

BRIDGE

Play these chords:

  Bb         Ab

E|---|     E|-4-|
A|-1-|     A|-6-|
D|-3-|     D|-6-|
G|-3-|     G|-5-|
B|-3-|     B|-4-|
e|-1-|     e|-4-|

After the first bit of the bridge play:

  G

E|-3-|
A|-5-|
D|-5-|
G|-4-|
B|-3-|
e|-3-|

After the second part of the bridge play:

E|-7-|
A|-6-|
D|-4-|
G|-4-|
B|-4-|
e|-4-|

OUTRO

Play intro

----------------

Paint a picture,
Clear cut and pale on a cold winter's day,
Shapes and cool light wander the streets like an army of strays,
On a cold winters day

Will you let me romanticize,
The beauty in our London Skies,
You know the sunlight always shines,
Behind the clouds of London Skies

Patient moments chill to the bone under infinite greys,
Vision hindered mist settling low like a ghostly ballet,
On a cold winter's day.

Will you let me romanticize,
The beauty in our London Skies,
You know the sunlight always shines,
Behind the clouds of London Skies

Nothing is certain except everything you know can change,
you worship the sun but now,
can you fall for the rain...

Will you let me romanticize,
The beauty in our London Skies,
You know the sunlight always shines,
Behind the clouds of London Skies.
            
Hard to play? Try these video lessons and learn fast. | Correct




comments powered by Disqus
↑ Back to top | Tablatures and chords are parodies/interpretations of the original songs. You may use it for private study, scholarship, research or language learning purposes only