>
 >
London Skies

London Skies Guitar Tabs

Jamie Cullum - London Skies chords, tabs, tablatures, lyrics

Guitar lessons | Add/correct | Request | Top 50 tabs Artists:  A B C D E F G H I J K L M N O P Q R S T U V W X Y Z 0-9

London Skies Guitar Tabs – Jamie Cullum

CD, Sheet music, Poster

Do you like London Skies? Share with your friends now
TabsTabs v2Tabs v3
credit to VINCENT WEBB, especially for the bridge part.
*********************************************************

Tuning: Dadgbe

h - hammer
p - pull
/ - slide
* - harmonic
notes in brackets '[]' are optional.

Capo at 4th fret. Tabbed as if no capo.


*********************************************************

Intro & Verse PART I
Emphasis on strings D and a

e---X----X------X----X--------X----X--X-X--X-X-X-X-X--|
b---0----0------0----0--------0----0--0-0--0-0-0-0-0--|
g---0----0------0----0--------0----0--0-0--0-0-0-0-0--|
d---0----0------0----0--------0----0--0-0--0-0-0-0-0--|
a---X----4h5----4----0--------4----5--4-0--5-4-0-5-4--|
D---5----5------5----5--------5----5--5-5--5-5-5-5-5--|


Verse PART II

e--------0--[0]---[0]-------------0--[0]---[0]------|
b--------3--[0]---[0]-------------3--[0]---[0]------|
g--------4---0-----0--------------4---0-----0-------|
d------------2-----2h4p2p0------------2-----2p0-----|
a----0-------0-----0----------0-------0-----0-------|
D----0-------0-----0----------0-------0-----0-------|

=============================================================

Chord leading to CHORUS

e--X--|
b--5--|
g--5--|
d--5--|
a--X--|
D--3--|

=============================================================

CHORUS

e---[0]------[0]------[0]------[0]-------|
b---[0]------[0]------[0]------[0]-------|
g----9--------7--------9--------7--------|
d----7--------5--------7--------5--------|
a----7--------5--------7--------5--------|
D----7--------5--------7--------5--------|

                               ($)
e---[0]------[0]------[0]---------5-5----|
b---[0]------[0]------[0]---------5-5----|
g----9--------7--------4----------7-7----|
d----7--------5--------2--------0---0----|
a----7--------5--------2--------0---0----|
D----7--------5--------2--------0---0----|


At the end of chorus, omit the part with ($) sign and play this instead.

e-------------------|
b-------------------|
g-------------------|
d--------------0--2-|
a-------0--2/4------|
D-2--4--------------|

Then go back to the intro.

=============================================================

BRIDGE

e---4-4-4-4-4-4-3-3-3-3-3-3-2---3---2-----4-4-4-4-4-4-3-3-3-3-3-3----|
b---5-5-5-5-5-5-4-4-4-4-4-4-3---3---3-----5-5-5-5-5-5-4-4-4-4-4-4----|
g------------------------------------------------------------------2-|
d------------------------------------------------------------------2-|
a--------------------------------------------------------------------|
e--------------------------------------------------------------------|

Then go to CHORUS.

=============================================================

ENDING

e---X----X------X----X--------X----X--X-X--X-X-X-X-X--|
b---0----0------0----0--------0----0--0-0--0-0-0-0-0--|
g---0----0------0----0--------0----0--0-0--0-0-0-0-0--|
d---0----0------0----0--------0----0--0-0--0-0-0-0-0--|
a---4----4h5----4----0--------4----5--4-0--5-4-0-5-4--|
D---5----5------5----5--------5----5--5-5--5-5-5-5-5--|


e--------0--[0]---[0]-------------0--[0]---[0]----------|
b--------3--[0]---[0]-------------3--[0]---[0]----------|
g--------4---0-----0--------------4---0-----0-----------|
d------------2-----2h4p2p0------------2-----2h4p2p0-----|
a----0-------0-----0----------0-------0-----0-----------|
D----0-------0-----0----------0-------0-----0-----------|

                                      *                           
e--------0--[0]---[0]-----------------------------------|
b--------3--[0]---[0]-------------0---7-----------------|
g--------4---0-----0--------------0---7-----------------|
d------------2-----2h4p2p0--------0---7-----------------|
a----0-------0-----0----------0-------------------------|
D----0-------0-----0----------0-------------------------|




=============================================================
[[1]]





Comments


Popular Jamie Cullum tabs & chords
Blame It On My Youth Chords
I Get A Kick Out Of You Chords
Mixtape Chords
Mixtape 1 Chords
These Are The Days Chords
What A Difference A Day Made Chords
Gran Torino Intro Tabs
All At Sea Ukulele
Catch The Sun Ukulele
Dont Stop The Music Ukulele


Song lyrics



↑ Back to top | Tablatures and chords are parodies/interpretations of the original songs. You may use it for private study, scholarship, research or language learning purposes only
© 2014 AZChords.com Contact us | Privacy policy | DMCA | Add/correct tabs | Request tabs | Top 50 tabs