» » »

Women Tabs (ver.2)

Artists:  A B C D E F G H I J K L M N O P Q R S T U V W X Y Z # 

Women Tabs (ver.2)

Jamey Johnson
Rating:
0/5 (0 votes)

Hard to play? Try these video lessons and learn fast.
                
Unfinished

Women their all crazy some hide it well    ??  ?? 
--------------------------------------
--------------------------------------
-----------------0-0-------0-222-0----
-0h2-0-------0h2-----0----------------
-------3------------------------------
---------3----------------------------

and some just let it show
--------------------------------------     ??  ??
--------------------------------------
--------------------------------------
----3-------3p2-----------------------
-----------------3--------------------
--------------------------------------


This can be mixed in during the chords but i cant figure out the tune...
Jamey Johnson plays it in a GACTv.com video. Any help would be great.
            
Hard to play? Try these video lessons and learn fast. | Correct




comments powered by Disqus
↑ Back to top | Tablatures and chords are parodies/interpretations of the original songs. You may use it for private study, scholarship, research or language learning purposes only