» » »

Ray Ray's Juke Joint Tabs (ver.1)

Artists:  A B C D E F G H I J K L M N O P Q R S T U V W X Y Z # 

Ray Ray's Juke Joint Tabs (ver.1)

Jamey Johnson
Rating:
0/5 (0 votes)

Hard to play? Try these video lessons and learn fast.
                Ray Ray's Juke Joint (Intro)
Jamey Johnson


(Intro)

E |-------------------------------------|
B |-------------------------------------|
G |-------------------------------------|
D |-0---0-3-2-0------0h3p0-3/5-3/5-3-0--|
A |--------------0h3--------------------|
E |-------------------------------------|

E |---------------------------------------|
B |---------------------------------------|
G |-------------------------5-3-2-0-------|
D |-0---0-3-2-0------0h3p0----------3-2-0-|
A |---------------0h3---------------------|
E |---------------------------------------|
            
Hard to play? Try these video lessons and learn fast. | Correct




comments powered by Disqus
↑ Back to top | Tablatures and chords are parodies/interpretations of the original songs. You may use it for private study, scholarship, research or language learning purposes only