» » »

Jamey Johnson, Front Porch Swing Afternoon Tabs (ver.1)

Artists:  A B C D E F G H I J K L M N O P Q R S T U V W X Y Z # 

Front Porch Swing Afternoon Tabs (ver.1)

Jamey Johnson Tabs
 Rating:
4/5 (5 votes)
Front Porch Swing Afternoon lessons Tabs too difficult? Try these video lessons and learn fast
1
                -------------------------------------------------------------------------------
-------------------------------------------------------------------------------

Tuning:Standard
							  Intro
e|-------------------------------------------------------1-0h1---------------|
B|---1-3-3h5-3-1-3h5-3-1-7h8-7-8/3--0-1-0---0-1-0-1-3-1----------------------|
G|----------------------------------------2----------------------------------|
D|---------------------------------------------------------------------------|
A|---------------------------------------------------------------------------|
E|---------------------------------------------------------------------------|

C             Em          Am         G
Sittin' here countin' the cars goin' by,
      F           G             C     Csus4 C
In an hour, must of been one or two,
C            Em         Am             G
Sheets are flapping' on momma's clothesline,
        F         G                C     Csus4 C
It's an old front porch swing afternoon,

C          Em             Am       G    
I can hear music from somewhere inside,
    F              G                C     Csus4 C
The faint sound of a Hank William's tune,
C                 Em         Am         G
I just caught the smell of a blackberry pie,
        F               G          C     Csus4 C
On this old front porch swing afternoon,

    Am G F                C
And ooh, feel that breeze blowin',
     F          G           Am     C
That magnolia's showin' her bloom,
        F               G          C     Csus4 C
On this old front porch swing afternoon,

							     Solo
e|--0h1-0-------------------------7h8-7-8/3-0---------------------------------|
B|--------1-3-3h5-3-1-3h5-3-3h5-3-------------1-0---0-1-0-1-3-1-6p5-3-1-3/5---|
G|------------------------------------------------2---------------------------|
D|----------------------------------------------------------------------------|
A|----------------------------------------------------------------------------|
E|----------------------------------------------------------------------------|

C               Em           Am            G
That old dog is layin' under grandpa's old chair,
         F           G          C   Csus4 C
He ain't lookin' for nothin' to do,
         C          Em          Am        C   
And that tractor is stirrin' up dust over there,
        F               G          C     Csus4 C
On this old front porch swing afternoon,
      C           Em         Am            G
I can see grandma now in her old checkered dress,
F         G            C      Csus4 C
Beatin' a rug with her broom,
    C          Em                Am          C    
The clouds are returnin' comin' in from the west,
        F               G          C     Csus4 C
On this old front porch swing afternoon,

    Am G  F               C
And ooh, feel that breeze blowin',
    F            G         Am    G
The sun will be goin' down soon,
      F               G          Am    G
On an old front porch swing afternoon,
        F               G          C
It's an old front porch swing afternoon,

(Repeat Solo) End On C

Thanks for readin' my tab! ~Doc0281
************************************

| /   slide up
| \   slide down
| h   hammer-on
| p   pull-off
| ~   vibrato
| +   harmonic
| x   Mute note
| b   Bend
| pb  Pre-bend
| br  Bend release
| pbr Pre-bend release
| brb Bend release bend

************************************
            
Submit corrections

comments powered by Disqus
↑ Back to top | Jamey Johnson Tabs for Front Porch Swing Afternoon. Lyrics for acoustic guitar and electric guitar. 1 Tablatures and chords are parodies/interpretations of the original songs. You may use it for private study, scholarship, research or language learning purposes only