» » »

James Vincent Mcmorrow, From The Woods Tabs (ver.1)

Artists:  A B C D E F G H I J K L M N O P Q R S T U V W X Y Z # 

From The Woods Tabs (ver.1)

James Vincent Mcmorrow Tabs
 Rating:
3.6/5 (5 votes)
From The Woods lessons Tabs too difficult? Try these video lessons and learn fast
                -----------------------------------------------------------------------------
             From The Woods! - James Vincent McMorrow
-----------------------------------------------------------------------------





Tuning:EADGBE

PART 1 INTRO/VERSE

e|-----------------------------------|
B|-----------------4------------4----|
G|-------------3-------------3-------|   Repeat 4 x
D|---------3--------------3----------|
A|----2------------------------------|
E|--------------------2--------------|

e|-----------------------------------|
B|---------------3---------------3---|
G|-----------0---------------0-------|   Repeat 4 x
D|-------0---------------0-----------|
A|-------------------2---------------|
E|---3-------------------------------|



PART 2    BRIDGE 1

e|-------------------2------------------2-----|
B|--------------3-------------------3---------|
G|---------2--------------------2-------------|  Repeat 2 x
D|-----0--------------------------------------|
A|------------------------0-------------------|
E|--------------------------------------------|

e|-------------------------------------|
B|--------------2-------------2--------|
G|----------2--------------2-----------|   Repeat 2 x
D|-------2--------------2--------------|
A|---0---------------------------------|
E|----------------0--------------------|

e|-----------------------------------------|
B|---------------2------------------2------|
G|-----------3-----------------3-----------|  Repeat 4 x
D|-------3-----------------3---------------|
A|---2-------------------------------------|
E|------------------2----------------------|



PART 3 BRIDE 2

e|----------------------------------------------|
B|------------------0---------------------------|
G|--------------0------0------------------------|
D|----------2-------------2---------------------|
A|-------2-------------------2------------------|
E|---0------------------------------------------|

e|------------------2------2--------------------|
B|-------------3---------------3----------------|
G|--------2-------------------------2-----------|
D|---0-----------------------------------0------|
A|----------------------------------------------|
E|----------------------------------------------|

e|----------------------------------------------|
B|------------2---------------------------------|
G|--------2-------2-----------------------------| Repeat 2 X
D|-----2-------------2--------------------------|
A|--0-------------------0-----------------------|
E|----------------------------------------------|


Ending : 

e|-------------------3-----------------|
B|--------3----------3-----------------|
G|--------4----------0-----------------|
D|--------4----------0-----------------|
A|---2----2----------2-----------------|
E|---------------3---3-----------------|



************************************

| /   slide up
| \   slide down
| h   hammer-on
| p   pull-off
| ~   vibrato
| +   harmonic
| x   Mute note
| b   Bend
| pb  Pre-bend
| br  Bend release
| pbr Pre-bend release
| brb Bend release bend

************************************
            
Submit corrections

comments powered by Disqus
↑ Back to top | James Vincent Mcmorrow Tabs for From The Woods. Lyrics for acoustic guitar and electric guitar. Tablatures and chords are parodies/interpretations of the original songs. You may use it for private study, scholarship, research or language learning purposes only