» » »

Jamestown Story, Dreaming Of This Tabs (ver.1)

Artists:  A B C D E F G H I J K L M N O P Q R S T U V W X Y Z # 

Dreaming Of This Tabs (ver.1)

Jamestown Story Tabs
Rating:
0/5 (0 votes)
Dreaming Of This lessons Tabs too difficult? Try these video lessons and learn fast
                And then i turned Seven(The Jamestown Story) - The Jamestown Story (Dreaming of this)


INTRO

I.
e----------------------------------------------------------|
B----1---0---3---1-----------1---0---3----1----------------|
G----0---0---0---0-----------0---0---0----0----------------|
D----------------------------------------------------------|
A----3-----------------------3-----------------------------|
E----------------------------------------------------------|


e-----------1--3--3---3---3--0--1--0-----------------------|
B-----3-------------0---0------------------1---------------|
G----------------------------------------------------------|
D----------------------------------------------------------|
A----------------------------------------------------------|
E----------------------------------------------------------|


e----------------------------------------------------------|
B---------3------1---1-------------------------------------|
G------2------2--------------------------------------------|
D--3-------------------------------------------------------|
A----------------------------------------------------------|
E----------------------------------------------------------|

II.
e----------------------------------------------------------|
B----1---0---3---1-----------1---0---3----1-----------1----|
G----0---0---0---0-----------0---0---0----0-----------2----|
D--------------------------------------------------2-------|
A----3-----------------------3-----------------------------|
E----------------------------------------------------------|


Verse:

e----------------------------------------------------------|
B----1---0---3---1-------1----1---0---3----1---------1-----|
G----0---0---0---0-------0----0---0---0----0---------0-----|
D----------------------------------------------------------|
A----3----------------3-------3------------------3---------|
E----------------------------------------------------------|
     C-----

I've been waiting , and patiently praying


e-----------------0-----------------------------------------|
B------1-----1-----------3-----3-----3----------------------|
G------2-----2-----------0-----0-----0----------------------|
D------2----------------------------------------------------|
A---0------0------------------------------------------------|
E------------------------3---3----3-------------------------|
	Am---		G--

for this moment all my life


	C		 C
and i never, thought i'd ever

	Am	     G
feel so glad to be alive


=======

Am		   F			C
I've spent so many years dreaming of this

	     G
I'm long overdue


Am		   F		      C
And finally all my dreams are happening

		     G
in an ideal form of you


*Repeat intro II

Verse II(same chord pattern)


		C			C
Let's take this moment, squeeze it and hold it,


	Am		G
for the rest of our lives,

	 C		C		Am
then the time will never come to say goodbye...

      G
goodbye

Repeat chorus.

enjoy.
            

comments powered by Disqus
↑ Back to top | Jamestown Story Tabs for Dreaming Of This. Lyrics for acoustic guitar and electric guitar. Tablatures and chords are parodies/interpretations of the original songs. You may use it for private study, scholarship, research or language learning purposes only