>
 >
Youve Got A Friend 2

Youve Got A Friend 2 Guitar Tabs

James Taylor - Youve Got A Friend 2 chords, tabs, tablatures, lyrics

Guitar lessons | Add/correct | Request | Top 50 tabs Artists:  A B C D E F G H I J K L M N O P Q R S T U V W X Y Z 0-9

Youve Got A Friend 2 Guitar Tabs – James Taylor

CD, Sheet music, Poster

Do you like Youve Got A Friend 2? Share with your friends now
Tabs
-------------------------------------------------------------------------------
                      YOUíVE GOT A FRIEND Ė James Taylor
                                 (Carole King)
                  Mud Slide Slim and the Blue Horizon [1971]
-------------------------------------------------------------------------------




Guitar 1: capo at second fret (Notes at the second fret are considered to be 
open and are notated as Ď0í. Fret numbers remain unchanged for all 
other notes)
Guitar 2: standard tuning


Intro

    Guitar 1
      A                                 D                D/E
     (G)                               (C)              (C/D)
e|------------5----------------------|-------5----------------5--(5)--(5)--|
B|--------------------0-------0---3--|-(3)-----------3--(3)----------------|
G|--------0-------0-------4----------|-----------0----------------0--------|
D|-----------------------------------|-------------------0-------------0---|
A|-----------------------------------|--5----------------------------------|
E|----5------------------------------|-------------------------------------|
 |  Guitar 2
e|-----------------------------------|-------------------------------------|
B|-----------------------------------|-------------------------------------|
G|-----------------------------------|-------------------------------------|
D|-----------------------------------|-------------------------------------|
A|-----------------------------------|-------------------------------------|
E|-----------------------------------|-------------------------------------|



      A                                    G#m     F#m/C#          C#aug
     (G)                                  (F#m)   (Em/B)          (Baug)
e|------5---5-------5--(5)--------------|------------------0--------------|
B|----0h3---3-------0--(0)-------5------|----------4---------------6------|
G|--------------4------------0----------|------4-------4-------0-------0--|
D|--------------------------------------|---------------------------------|
A|--------------------------------------|------------------4-------4------|
E|------0---------------5------------5--|--4------------------------------|
 |
e|--------------------------------------|---------------------------------|
B|--------------------------------------|--7--5----------------5----------|
G|--------------------------------------|--------6\4---2--4/6-----6\4--2--|
D|--------------------------------------|---------------------------------|
A|--------------------------------------|---------------------------------|
E|--------------------------------------|---------------------------------|

  Verse 1

      F#m                               C#7
     (Em)                              (B7)
e|-----------------------------------|---------------------------------|
B|----------------0------------------|----------------------0----------|
G|------------0-----------0----------|----------4----------------------|
D|--------4-----------4-----------0--|------3-----------3-----------3--|
A|-----------------------------------|--4-----------------------4------|
E|----0-----------------------0------|--------------4--(4)-------------|
 |
e|-----------------------------------|---------------------------------|
B|-----------------------------------|---------------------------------|
G|-----------------------------------|---------------------------------|
D|----4------------------------------|---------------------------------|
A|-----------------------------------|---------------------------------|
E|-----------------------------------|---------------------------------|



      F#m           C#7                  F#m
     (Em)          (B7)                 (Em)
e|------------------------------------|----------------------------------|
B|------------0----------------0------|--------------5--(5)--------------|
G|-----------------------------4------|------0----------------0----------|
D|--------4-----------3--------3------|--4-------4----------------4---4--|
A|----------------4--(4)---4----------|----------------------------------|
E|----0----------------------------0--|-(0)------------------------------|
 |
e|------------------------------------|----------------------------------|
B|------------------------------------|----------------------------------|
G|------------------------------------|----------------------------------|
D|------------------------------------|----------------------------------|
A|------------------------------------|----------------------------------|
E|------------------------------------|----------------------------------|



      Bm7                                D/E
    (Am7)                          (C/D)
e|-------------0-----------0----------|----------5------------5----------|
B|-------------3-----------3----------|----------3------------3----------|
G|---------------------0--------------|------4-----------4------------0--|
D|---(4)---0-----------------------0--|--0-----------0--(0)-------0------|
A|----0------------0--(0)------0------|----------------------------------|
E|------------------------------------|----------------------------------|
 |
e|------------------------------------|----------------------------------|
B|------------------------------------|----------------------------------|
G|------------------------------------|----------------------------------|
D|------------------------------------|----------------------------------|
A|------------------------------------|----------------------------------|
E|------------------------------------|----------------------------------|



      A
     (G)
e|-----------------5--(5)-----------5--|------------5----------------|
B|---------0----------------3----------|--3p0---------------3p0------|
G|---(0)-------0----------------0------|--------0-----------------0--|
D|-------------------------------------|-----------------------------|
A|-------------------------------------|-----------------------------|
E|----5----------------5---------------|----0-----------5---5-----5--|
 |
e|-------------------------------------|-----------------------------|
B|----------------------------------5--|----7------------------------|
G|-----------------------2--4--4/5-----|---------6\4--2--4--2--------|
D|-----------------2--4----------------|-----------------------4--2--|
A|-------------------------------------|-----------------------------|
E|-------------------------------------|-----------------------------|



      G#m7                               C#7
     (F#m7)                             (B7)
e|----------------0--(0)--------------|------------------------4----------|
B|----7-------------------------------|-------6-------7--(7)--------------|
G|----4-------4------------4----------|-------4-------4--(4)--------------|
D|--------5-----------6------------6--|-(6)---6-------6--(6)---5-------6--|
A|-----------------------------4------|--4--------4----------------4------|
E|------------------------------------|-----------------------------------|
 |
e|------------------------------------|-----------------------------------|
B|------------7-----------7--(7)------|--6---6------------------6---------|
G|------------4-----------4--(4)------|--4---4------------------4h6p4-----|
D|------------------------------------|-------------------6------------6--|
A|--------4-------5---4---------------|---------------4-------------------|
E|----4-------------------------------|-----------------------------------|



      F#m7            C#7               F#m7
     (Em7)           (B7)              (Em7)
e|-----------------------------------|-----------------------------------|
B|-------------0---------------------|---------------5--(5)-----------5--|
G|------------------------4-------0--|-(0)-------0------------0----------|
D|---------4-------------------------|-------4--------------------4------|
A|--------------------4-------4------|-----------------------------------|
E|----0------------------------------|--0--------------------------------|
 |
e|-----------------------------------|-----------------------------------|
B|----------------------------6------|--2-----------5--------------------|
G|----------------------------4------|------------------5\4---2---2------|
D|--------4--------------------------|--4-----------4---5\4---2---2---4--|
A|------------4-------4--------------|-----------4-----------------------|
E|----2-----------2------------------|-----------0-----------------------|



      Bm7                                  C#m7
     (Am7)                                (Bm7)
e|--------------------------------------|----------------------4------|
B|------------3-------------3--(3)------|----------5-------5----------|
G|------------0-------------0--(0)---0--|------------------4----------|
D|--------------------0h4---------------|------6----------------------|
A|----0-----------0--(0)--------0-------|--4-----------4--(4)---------|
E|--------------------------------------|--------------------------4--|
 |
e|------------2-------------------------|-----------------------------|
B|------------3---------------3---------|----------5-----5------------|
G|------------2---------------2h4p2-----|----------4-----4h6----------|
D|--------4-------4-------4----------4--|------6-------------------6--|
A|--------------------------------------|-----------------------------|
E|--------------------------------------|-----------------------------|
 


      E7sus4
     (D7sus4)
e|----------5-----------------------|----------0-------4-------5p4------|
B|----------3------------3----------|-----------------------------------|
G|----------4-------4------------0--|------4-------4-------4---------4--|
D|----0---------0--(0)-------0------|--0--------------------------------|
A|----------------------------------|-----------------------------------|
E|----------------------------------|-----------------------------------|
 |
e|----------------------------------|----------5---10---9---7-----------|
B|-------------------2--3-----2--3--|--5---7--------------------7---10--|
G|-------------2--4--------4--------|-----------------------------------|
D|-------2--4-----------------------|-----------------------------------|
A|----------------------------------|-----------------------------------|
E|----0-----------------------------|-----------------------------------|

  Chorus

      Amaj7
     (Gmaj7)
e|------------------------5----------|---------------4--(4)-------------|
B|-----------------------------------|-----------------------5----------|
G|--------------------0-------0---0--|-(0)---0-------------------0------|
D|-----------------------------------|----------------------------------|
A|-----------------------------------|----------------------------------|
E|----5------------------------------|-----------5-------------------5--|
 |
e|-----------------------------------|----------------------------------|
B|------------2-----------2----------|-------2---2-------2---2-------2--|
G|------------1-----------1----------|-------1---1-------1---1-------1--|
D|------------2-----------2----------|-------2---2-------2---2-------2--|
A|----0---0-------0---0-----------0--|-------0---0-------0---0-------0--|
E|-----------------------------------|----------------------------------|



      Dmaj7                             Bm7                    E7sus4
     (Cmaj7)                           (Am7)                  (D7sus4)
e|------------------------0-------0--|------------0------------5------|
B|------------------------0-------0--|------------0------------3------|
G|------------------------0-------0--|--------0----------------4------|
D|------------------0h4-------4------|--0h4-----------0--(0)----------|
A|----5------------------------------|--------------------------------|
E|-----------------------------------|--------------------------------|
 |
e|------------2-----------2----------|--------------------------------|
B|------------2-----------2----------|------------3------------3---3--|
G|------------2-------2--------------|------------2------------2---2--|
D|--------0-------9---------------4--|------2/4-------2---------------|
A|-----------------------------------|--------------------------------|
E|-----------------------------------|--------------------0-----------|



      A     Amaj7                    A
     (G)   (Gmaj7)                  (G)
e|-----------------------------4--|-(4)------------------------------|
B|-------------------------5------|-----------5-----------5----------|
G|--------0-----------0-----------|-------0-----------------------0--|
D|------------0-------------------|----------------------------------|
A|--------------------------------|----------------------------------|
E|----5-----------5--(5)----------|---------------5---5-------5------|
 |
e|-------------------------4---4--|-(4)------------------------------|
B|------------2------------2---2--|-(2)-----------2--(2)--3---2------|
G|------------2------------2---2--|-(2)-----------2--(2)------2------|
D|------------2------------2---2--|-(2)-----------2--(2)------2------|
A|--------------------------------|-------0--------------------------|
E|--------------------------------|-------------------------------2--|



      E7sus4
     (D7sus4)
e|--------5---5------5--------5--5-------5--|--(5)-------5----------------------|
B|--------3---3------3------0h3--0-------3--|--(3)-------3----------------------|
G|---------------4------4------------4------|--------4---------------4-------0--|
D|------------------------------------------|---4------------0-------0---0------|
A|------------------------------------------|-----------------------------------|
E|------------------------------------------|-----------------------------------|
 |
e|------------------------------------------|-----------------------------------|
B|-------------------3------3----2----------|--------3---5-----7\5---3---3------|
G|--------4-2/4------2------4----2---4---2--|-2/4----2---4-----6\4---2---2------|
D|--------4-2/4----------------------4---2--|-2/4-------------------------------|
A|------------------------------------------|-----------------------------------|
E|----0-------------------------------------|-----------------------------------|



      A                       Amaj7
     (G)                     (Gmaj7)
e|------------5------------------|------4---4------------4------|
B|------------------------0------|------5---5------------5------|
G|--------0-------0---0-------0--|--------------0--(0)----------|
D|-------------------------------|---------------------------0--|
A|-------------------------------|------------------------------|
E|----5--------------------------|------------------------------|
 |
e|------------5-----------5---9--|------9---9-------9----9------|
B|------------2-----------2---9--|------9---9-------9----9------|
G|------------2-----------2---9--|------9---9-------9----9------|
D|------------2-----------2---7--|------7---7-------7----7------|
A|----0--------------------------|------------------------------|
E|-------------------------------|------------------------------|



      D                                  F#m7
     (C)                                (Em7)
e|------------0------------0----------|---------------------------------------|
B|------------3------------3----------|-------7-------------------------------|
G|--------0-----------0------------0--|--4/6-----6\4--0-----------------------|
D|------------------------------------|------------------4--------0--4--0-----|
A|----5-----------5--(5)-------5------|---------------------0--4-----------4--|
E|------------------------------------|---------------------------------------|
 |
e|------------------------------------|---------------------------------------|
B|------------------------------------|---------------------------------------|
G|------------------------------------|---------------------------------------|
D|------------------------------------|---------------------------------------|
A|------------------------------------|---------------------------------------|
E|------------------------------------|---------------------------------------|



      Dmaj7       C#m7             D/E      E7sus4
     (Cmaj7)     (Bm7)            (C/D)    (D7sus4)
e|--------0---------------------|--0--------5---------------|
B|--------0-------5-------------|--3--------3---------------|
G|--------0-------4-------------|--0--------4---------------|
D|----------------6-------------|--0--------0--------0------|
A|----5-------5---4----------0--|---------------------------|
E|------------------------------|---------------------------|
 |
e|------------------------------|--2--------9---------------|
B|--------7-------5---5---------|--3--------7---------------|
G|--------6-------4---4h6p4-----|--2--------7---------------|
D|--------7-------6----------4--|--4--------7---------------|
A|----5--(5)------4-------------|---------------------------|
E|------------------------------|---------------------------|



      A                                  D
     (G)                                (C)
e|-------------5----------------------|------5----------------------------|
B|---------------------0-------0---3--|-(3)--------3--(3)-----------------|
G|---------0-------0-------4----------|---------0------------0--4p0-------|
D|---(0)------------------------------|----------------0--4----------4p0--|
A|------------------------------------|-----------------------------------|
E|----5-------------------------------|-----------------------------------|
 |
e|------------------------------------|------2--------(2)-----------------|
B|---------------------2---0---3---2--|-----------------------------------|
G|------------------------------------|------2--------(2)-----------------|
D|---------------------2---2---2---2--|-----------------------------------|
A|------------------------------------|-----------------------------------|
E|------------------------------------|-----------------------------------|



      A                                 G#m7       C#7sus4      C#7
     (G)                               (F#m7)     (B7sus4)     (B7)
e|------5-------5---(5)--------------|----------0-------5-------4------|
B|----3p0-------0---(0)--------------|---------------------------------|
G|----------4-------------0----------|--4-----------4------------------|
D|--------------------------------0--|------4---------------5-------5--|
A|-----------------------------------|---------------------------------|
E|----------------------------5------|---------------------------------|
 |
e|----2---2--------------------------|---------------------------------|
B|------------3---2--(2)-------------|----------4---5---7---5----------|
G|----2---2---2----------------------|----------0-------------6\4---2--|
D|----------------2--(2)-------------|---------------------------------|
A|-----------------------------------|---------------------------------|
E|-----------------------------------|---------------------------------|

  Verse 2

      F#m                               C#7
     (Em7)                             (B7)
e|-----------------------------------|----------------------4----------|
B|----------------0------------------|----------0-------------------0--|
G|------------0-----------0----------|------4-----------4--------------|
D|--------4-----------4-----------0--|---------------------------------|
A|-----------------------------------|--4-----------------------4------|
E|----0------------------------------|--------------4--(4)-------------|
 |
e|----2------------------------------|---------------------------------|
B|-----------------------------------|---------------------------------|
G|----4-------2----------------------|---------------------------------|
D|--------------------4---4----------|---------------------------------|
A|-----------------------------------|---------------------------------|
E|-----------------------------------|---------------------------------|



      F#m              C#7                F#m              F#m7
     (Em)             (B7)               (Em)             (Em7)
e|-------------------------------------|-------------------------------|
B|---(0)-------0------------0-------0--|-(0)---------------5--------5--|
G|---------0-----------4---------------|-----------0-------0--------0--|
D|-------------------------------------|-------4-----------4--------4--|
A|-----------------4--(4)-------4------|-------------------------------|
E|----0--------------------------------|--0------------0--(0)---0------|
 |
e|-------------------------------------|-------------------------------|
B|-------------------------------------|-------------------------------|
G|-------------------------------------|-------------------------------|
D|-------------------------------------|-------------------------------|
A|-------------------------------------|-------------------------------|
E|-------------------------------------|-------------------------------|



      Bm7              E7sus4
     (Am7)            (D7sus4)
e|----0--------0---0---5--------5--|------5------------5--------|
B|----3--------3---3---3--------3--|------3------------3--------|
G|----0--------0---0---0--------0--|------0---4--(4)-------4p0--|
D|---------------------------------|----------------------------|
A|---------------------------------|----------------------------|
E|---------------------------------|----------------------------|
 |
e|---------------------------------|----------------------------|
B|---------------------------------|----------------------------|
G|---------------------------------|----------------------------|
D|---------------------------------|----------------------------|
A|---------------------------------|----------------------------|
E|---------------------------------|----------------------------|



      A
     (G)
e|-------------5-------------5----------|------------5----------------------|
B|---------------------0h3--------------|-3p0--------------------0----------|
G|---(0)---0-------0-------------0------|--------0-----------0-----------0--|
D|--------------------------------------|-----------------------------------|
A|--------------------------------------|-----------------------------------|
E|----5--------------------------5---5--|--(5)-----------5--(5)------5------|
 |
e|--------------------------------------|-----------------------------------|
B|--------------------------------------|--------5---7--5-------------------|
G|-------------2---------4-------2---4--|---4/6------------6\4--2--4--2-----|
D|---------2-4--------------------------|--------------------------------4--|
A|--------------------------------------|-----------------------------------|
E|--------------------------------------|-----------------------------------|



      G#m7                         C#7     C#7sus4         C#7
     (F#m7)                       (B7)    (B7sus4)        (B7)
e|------------------------------|---------------------------------|
B|---------------7-----------7--|------6-------7--(7)-------------|
G|-----------4---4-------4------|------4-------4--(4)----------4--|
D|-----------6---6---6---6------|------6-------6--(6)-------------|
A|------------------------------|--4-------4-------4-------4------|
E|----4-------------------------|---------------------------------|
 |
e|------------------------------|---------------------------------|
B|---------------7-------7------|--------------6--(6)------4------|
G|---------------4-------4------|--------------4--(4)------4------|
D|---------------6-------6------|--------------6--(6)--4h6--------|
A|------------------------------|---------------------------------|
E|------------------------------|---------------------------------|



      F#m7         C#7                   F#m7
     (Em7)        (B7)                  (Em7)
e|------------------------------------|----------------------------------|
B|-------------0---------------0------|----------0---5--(5)--------------|
G|-------------0---------------4------|------0----------------0-------0--|
D|---------4---------------3----------|--4------------------------4------|
A|---------------------4--------------|----------------------------------|
E|----0------------4---------------0--|-(0)------------------------------|
 |
e|------------------------------------|----------------------------------|
B|------------------------------------|----------------------------------|
G|------------------------------------|----------------------------------|
D|-----------------2---4---2---4---2--|--------------4--(4)-------4------|
A|------------------------------------|--4--------------------4----------|
E|------------------------------------|----------------------------------|



      Bm7                               C#m7
     (Am7)                             (Bm7)
e|----------0-------------0----------|----------------------4------|
B|----------3-------------3----------|----------5-----------5------|
G|----------0---0----(0)--0-------0--|----------4-------4----------|
D|------------------0h4--------------|----------6------------------|
A|----0-----------------------0------|--4-----------4--(4)------4--|
E|-----------------------------------|-----------------------------|
 |
e|-----------------------------------|----------0---------0-----0--|
B|--------------3-----3---3---3------|----------0-------0h2-----0--|
G|----------2---2---2h4---2---2------|------1-------1--------------|
D|--------2h4-----------------4------|-----------------------------|
A|----2---------------------------0--|--4--------------------------|
E|-----------------------------------|-----------------------------|



      E7sus4
     (D7sus4)
e|-----------------------5----------------|--4h5--4--0------------0-----|
B|----------------3-(3)-------------------|-------------5------5--------|
G|-------------------4--------4-----------|-----------------0-----------|
D|----0-----------------------------0-----|--0--------------------------|
A|----------------------------------------|-----------------------------|
E|----------------------------------------|-----------------------------|
 |
e|----------------------------------------|-------------2-5-4--2-----0--|
B|-------------------2--3--2-----2--------|--2----3--5------------2-----|
G|-------------2--4-----------4-----2--4--|-----------------------------|
D|-------2--4-----------------------------|-----------------------------|
A|----------------------------------------|-----------------------------|
E|----------------------------------------|-----------------------------|

  Chorus

      Amaj7
     (Gmaj7)
e|-----------------------------------|----------------------------------|
B|-----------------------------5-----|-(5)-------0-------5--------------|
G|-------------------------0---------|-------0-------------------0------|
D|-----------------------------------|----------------------------------|
A|-----------------------------------|----------------------------------|
E|----5--------------(5)-------------|----------------------------------|
 |
e|---(0)-------------------0------0--|----------------------------------|
B|----1--------2-----------2------2--|-----------2---2-------2---2------|
G|----2--------1-----------1------1--|-----------1---1-------1---1------|
D|----0--------2-----------2------2--|-----------2---2-------2---2------|
A|--------0--------0-----------------|-------0--------------------------|
E|-----------------------------------|----------------------------------|



      Dmaj7                         Bm7                    E7sus4
     (Cmaj7)                       (Am7)                  (D7SUS4)
e|--------0----------------0-----|----------0------(0)-------2----|
B|--------0----------------0-----|----------0------(0)-------3----|
G|--------0----------------0-----|----------0------(0)---0--------|
D|-------------------------------|------4-----------0-------------|
A|----5-------5--(5)---5---------|--0-----------------------------|
E|-------------------------------|--------------------------------|
 |
e|-------------------------------|--------------------------------|
B|--------3---------------3------|----------3----------------3----|
G|------------------------2------|----------2----------------2----|
D|--------0---0---0---0-------0--|----2/4-------4---2-------------|
A|-------------------------------|--------------------------------|
E|-------------------------------|--------------------------------|



      A        Asus4      A
     (G)      (Gsus4)    (G)
e|--------5-----------5------------|-----------5------------------|
B|---------------------------------|-3p2------------------0-------|
G|-------------0h3--------0--------|-------0----------0--------4--|
D|---------------------------------|------------------------------|
A|---------------------------------|------------------------------|
E|----5------5--(5)----------------|------------------------------|
 |
e|---------------------------------|------------------------------|
B|--------2-----------3-------3----|---------------2--(2)---------|
G|--------2-----------2-------2----|---------------2--(2)---------|
D|--------2-----------4-------4----|---------------2--(2)---------|
A|--------0-----------0-------0----|-------0---0------------------|
E|---------------------------------|------------------------------|



      E7sus4
     (D7sus4)
e|------5---5---5---5----5---5---5---5--|-(5)---5---5---5---5---5--------|
B|----0h3---3---3---3--0h3---0-------0--|-(0)---3---3---3---3---0--------|
G|-----(4)-----------------------4------|---------------------------4----|
D|--------------------------------------|--------------------------------|
A|--------------------------------------|--------------------------------|
E|--------------------------------------|--------------------------------|
 |
e|--------------------------------------|--------------------------------|
B|--------------7----------------7---7--|--7-----------------------------|
G|-----------------------7-------7---9--|--9--------7--------------------|
D|--------------7------7h9---9----------|-------9---7-------9-------7----|
A|------------------9-------------------|---------------9-------9--------|
E|----------0---------------------------|--------------------------------|



      A                             Amaj7
     (G)                           (Gmaj7)
e|------------5------------------|------9---9---9--------9----------|
B|-------------------------------|------9---9---9--------9----------|
G|--------0----------------------|------9---9---9--------9----------|
D|-------------------------------|------7---7---7--(7)---7-------7--|
A|-------------------------------|----------------------------------|
E|----5------------5-------------|----------------------------------|
 |
e|--------------------9----------|------9---9--------9---9----------|
B|--------------------9-------9--|------9---9--------9---9----------|
G|------------2-------9-------9--|------9---9--------9---9----------|
D|------------2-------7-------7--|------7---7--------7---7----------|
A|------------0------------------|----------------------------------|
E|-------------------------------|----------------------------------|



      Dmaj7                              F#m7
     (Cmaj7)                            (Em7)
e|------------0------------0----------|-------0-------------------------------|
B|------------3------------3----------|----------5----------------------------|
G|--------------------0------------0--|--4/6-------6\4--0---------------------|
D|------------------------------------|--------------------4-------0--4p0-----|
A|----5-----------5--(5)-------5------|-----------------------0h4----------4--|
E|------------------------------------|--0------------------------------------|
 |
e|------------------------------------|-------5-------------------------------|
B|------------------------------------|--5/7-----7---5-----4------------------|
G|------------------------------------|-----------------6-----------2--4p2----|
D|------------------------------------|-----------------------2\4----------4--|
A|------------------------------------|---------------------------------------|
E|------------------------------------|---------------------------------------|



      Dmaj7       C#m7             Bm7      D/E   E7sus4
     (Cmaj7)     (Bm7)            (Am7)    (C/D) (D7sus4)                   
e|--------0---------------------|--0--------5----(5)-------------|
B|--------0---------------------|--3--------3----(3)-------------|
G|--------0---------------------|--0--------4----(4)-------------|
D|---------------------------0--|-(0)-------0----(0)------4------|
A|----5-------5---4------0------|--------------------------------|
E|------------------------------|--------------------------------|
 |
e|--------2-------4---4---------|--9--------9----(9)-------------|
B|--------2-------5---5---------|--7--------7----(7)-------------|
G|--------2-------4---4---------|--7--------7----(7)-------------|
D|----0--(0)------6---6---------|--7--------7----(7)-------------|
A|----------------4---4---------|--------------------------------|
E|------------------------------|--------------------------------|

  Bridge

      D/G         G                       D
     (C/F)       (F)                     (C)
e|------------0-----------------3------|----------0--------------------------|
B|--------3-----------------3----------|------3-------3-------------3p0------|
G|----0-----------0---0h4-----------4--|--0---------------------0---------0--|
D|-------------------------------------|------------------0h4----------------|
A|----5-----------------5--------------|--5----------------------------------|
E|-------------------------------------|-------------------------------------|
 |
e|-------------------------------------|-------------------------------------|
B|-------------------------------------|-------------------------------------|
G|-------------------------------------|-------------------------------------|
D|-------------------------------------|-------------------------------------|
A|-------------------------------------|-------------------------------------|
E|-------------------------------------|-------------------------------------|



      A                Asus4                  A       Amaj7
     (G)              (Gsus4)                (G)     (Gmaj7)
e|-------------5-------------5------------|---------------4--(4)----------|
B|---------------------0h3-------5p0------|-------5----------------5------|
G|---(0)---0-------0-------------------0--|-(0)-------0-------0--------0--|
D|----------------------------------------|-------------------------------|
A|----------------------------------------|-------------------------------|
E|----5-----------------------------------|--5----------------------------|
 |
e|----------------------------------------|-------------------------------|
B|----------------------------------------|-------------------------------|
G|----------------------------------------|-------------------------------|
D|----------------------------------------|-------------------------------|
A|----------------------------------------|-------------------------------|
E|----------------------------------------|-------------------------------|



      D                              Gmaj7
     (C)                            (Fmaj7)
e|------------0--(0)--------------|--------0--(0)--------------0----------|
B|--------3------------3----------|------------------------------------3--|
G|----------------0--------0---0--|--0h4------------------4---------------|
D|--------------------------------|---------------------------------------|
A|----5---------------------------|---------------------------------------|
E|--------------------------------|----3--------------0--(0)-------3------|
 |
e|--------------5p2---0--(0)------|----------5--(5)-----5--(5)-----5p3----|
B|----------------------------3---|-----------------3----------3----------|
G|--------------------------------|--------4----------4----------4--------|
D|--------------------------------|---------------------------------------|
A|--------------------------------|---------------------------------------|
E|--------------------------------|---------------------------------------|



      F#m7                               E7sus4       B7
     (Em7)                              (D7sus4)     (A7)
e|------------------------------------|------------------------------|
B|----------------5--(5)-----------5--|-(5)---0---4---0--(0)------4--|
G|------------0------------0----------|-------0-------0--(0)------2--|
D|--------4--------------------4------|-------4-------4--(4)------4--|
A|------------------------------------|--0---------------------------|
E|----0---------------0---------------|------------------------------|
 |
e|------------------------------------|---------------------------2--|
B|----------------5--(5)--------------|-----------------------0------|
G|------------------------------------|-------------------2----------|
D|----4-------------------------------|-----------0---1--------------|
A|------------------------------------|------------------------------|
E|------------------------------------|------------------------------|



      D/E                             E13
     (C/D)                           (D13)
e|----5----------5------(5)--------|--4----------------------------|
B|----3----------3------(3)--------|--5----------------------------|
G|----4----------4------(4)--------|--4----------------------------|
D|----0----------0------(0)--------|--0----------------------------|
A|---------------------------------|-------------------------------|
E|---------------------------------|-------------------------------|
 |
e|---------------------------------|--9----------------------------|
B|---------------------------------|--9----------------------------|
G|---------------------------------|--7----------------------------|
D|---------------------------------|-------------------------------|
A|---------------------------------|-------------------------------|
E|---------------------------------|-------------------------------|

  Chorus

      Amaj7
     (Gmaj7)
e|------------5------(5)-------------|---------------5------------4------|
B|-----------------------------------|------0-----------------0----------|
G|-------------------------0---------|--0-------0---------0-----------0--|
D|-----------------------------------|-----------------------------------|
A|-----------------------------------|-----------------------------------|
E|----5------------------------------|-----------------------------------|
 |
e|-----------------------------------|-----------------------------------|
B|------------2-----------2----------|---------2--------------2----------|
G|------------1-----------1----------|---------1--------------1----------|
D|------------2-----------2----------|---------2--------------2----------|
A|-----------------------------------|----------------0---0--------------|
E|-----------------------------------|-----------------------------------|



      Dmaj7                             Bm7                E7sus4
     (Cmaj7)                           (Am7)              (D7sus4)
e|------------0----------------0-----|------------0---------(0)------0--|
B|------------0----------------0-----|------------3---------(3)------3--|
G|------------0----------------0-----|------------0---------(0)--0------|
D|-----------------------------------|-------4---------------0----------|
A|----5-----------5--(5)---5---------|--0-------------------------------|
E|-----------------------------------|----------------------------------|
 |
e|------------2------------2---------|----------------------------------|
B|------------2------------2---------|------------3----------3----------|
G|------------2------------2---------|------------2-----2--2h4---2------|
D|--------0-------0--(0)----------0--|------0h4------4---------------4--|
A|-----------------------------------|----------------------------------|
E|-----------------------------------|----------------------------------|



      A         Asus4                A
     (G)       (Gsus4)              (G)
e|--------5------------5----------|-----------0------------------|
B|--------0-----------------------|-3p0-----------0-------0------|
G|--------------0h3--------0------|-------0-----------0-------4--|
D|--------------------------------|------------------------------|
A|--------------------------------|------------------------------|
E|------------5--(5)-----------5--|--(5)-------------------------|
 |
e|--------------------------------|------------------------------|
B|--------3-------2--------5---5--|-------3-------2--(2)----2----|
G|--------------------------------|------------------------------|
D|--------4-------2--------6---6--|-------4-------2--(2)----2----|
A|------------0-------------------|------------------------------|
E|--------------------------------|------------------------------|



      E7sus4
     (D7sus4)
e|------5---5----5---5--5---5--5--5--|-(5)----------5--(5)-----------|
B|----0h3---3--0h3---3--3---0-----0--|-(0)----------3--(3)-----------|
G|------4----------------------4-----|-------------------------------|
D|-----------------------------------|-------------------------------|
A|-----------------------------------|-------------------------------|
E|-----------------------------------|-------------------------------|
 |
e|-----------------------------------|--2---0------------------------|
B|-----------------------------------|--3-----------3---3-----3------|
G|-----------------------------------|--------------2---2-----2------|
D|----------4--------4------4-----4--|----------4---4---4-----4------|
A|----------2--------2------2-----2--|-------------------------------|
E|----------0--------0------0-----0--|-(0)---------------------------|



      Amaj7                         Amaj7
     (Gmaj7)                       (Gmaj7)
e|------------5--(5)-------------|------9---9-------9----9------|
B|---------------------0---------|------9---9-------9----9------|
G|--------0----------------------|------9---9-------9----9------|
D|-------------------------------|------7---7---7--(7)----7-----|
A|-------------------------------|------------------------------|
E|----5--------------------------|------------------------------|
 |
e|-------------------------------|------9---9-------9----9------|
B|------------5--------5------5--|------9---9-------9----9------|
G|------------6--------5------5--|------9---9-------9----9------|
D|------------6--------6------6--|------7---7-------7----7------|
A|-------------------------------|------------------------------|
E|-------------------------------|------------------------------|



      Dmaj7                              F#m7
     (Cmaj7)                            (Em7)
e|------------0-----------------------|-------0-------------------------------|
B|------------3-----------------------|----------5----------------------------|
G|--------0-----------0---------------|--4/6-------6\4--0---------------------|
D|------------------------------------|--------------------4-------0--4p0-----|
A|----5-----------5--(5)--------------|-----------------------0h4----------4--|
E|------------------------------------|---------------------------------------|
 |
e|------------------------------------|-------5-------------------------------|
B|------------------------------------|--5/7-----7---5------------------------|
G|------------------------------------|------------------6\4-------2--4p2-----|
D|------------------------------------|-----------------------2/4----------4--|
A|------------------------------------|---------------------------------------|
E|------------------------------------|---------------------------------------|



      Dmaj7       C#m7           E7sus4
     (Cmaj7)     (Bm7)          (D7sus4)
e|--------0-------------------|--0--------5----(5)-------------|
B|--------3-------------------|--3--------3----(3)-------------|
G|----------------------------|--0--------0----(0)-------------|
D|------------------------0---|-(0)-------0----(0)------0------|
A|----5-------5---4---0-------|--------------------------------|
E|----------------------------|--------------------------------|
 |
e|----------------------------|--9--------9----(9)-------------|
B|--------7-------5---5-------|--7--------7----(7)-------------|
G|--------6-------4---4-------|--7--------7----(7)-------------|
D|--------7-------5---5-------|--7--------7----(7)-------------|
A|----5-----------4---4-------|--------------------------------|
E|----------------------------|--------------------------------|

  Outro

      A                                 D
     (G)                               (C)
e|------------5----------------------|-------5--------------------5------|
B|--------------------0-------0---3--|-(3)-----------3--(3)--------------|
G|--------0-------0-------4----------|-----------0------------0-------0--|
D|-----------------------------------|-----------------------------------|
A|-----------------------------------|--------------------------------5--|
E|----5------------------------------|-----------------------------------|
 |
e|-----------------------------------|-------2----------(2)--------------|
B|--------------------2-------2---3--|-------3----------(3)--------------|
G|------------------------4----------|-------2----------(2)--------------|
D|-----------------------------------|-----------------------------------|
A|-----------------------------------|-----------------------------------|
E|-----------------------------------|-----------------------------------|



      A                                D
     (G)                              (C)
e|------5-------5--(5)-----------5--|-(5)-----------5--(5)----------|
B|----0h3-------0--(0)-------0------|-------3----------------3------|
G|----------4------------0----------|-----------0-------------------|
D|----------------------------------|-------------------------------|
A|----------------------------------|-------------------------------|
E|----5-----------------------------|----------------------------5--|
 |                               nh
e|----------------------------------|-------------------------------|
B|-------------------------------7--|-(7)---------------------------|
G|----------------------------------|-------------------------------|
D|-------------------------------7--|-(7)---------------------------|
A|----------------------------------|-------------------------------|
E|----------------------------------|-------------------------------|



      A                                   D
     (G)                                 (C)
e|-----5---5-------5--(5)--------------|-----------5-----------5--|
B|---0h3---2-------0--(0)-------0------|-------3-----------3------|
G|-------------4------------0----------|--0------------0----------|
D|-------------------------------------|--------------------------|
A|----------------------------------5--|-(5)----------------------|
E|----(5)------------------------------|--------------------------|
 |                                  nh
e|-----5-----------5--(5)--------------|--------------------------|
B|---2h3---2-------2--(2)-----------7--|-(7)----------------------|
G|-------------4-----------------------|--------------------------|
D|----------------------------------7--|-(7)----------------------|
A|-------------------------------------|--------------------------|
E|-------------------------------------|--------------------------|



      A                                   D
     (G)                                 (C)
e|-----5---5-------5--(5)--------------|----------------------------------|
B|---0h3---0-------0--(0)-------0------|-------3-----------3--------------|
G|-------------4------------0----------|---------------0-----------0------|
D|-------------------------------------|----------------------------------|
A|----------------------------------5--|-(5)-------5-----------5-------0--|
E|-------------------------------------|----------------------------------|
 |                                  nh
e|-----5-----------5--(5)--------------|----------------------------------|
B|---2h3---2-------0--(0)-----------7--|-(7)------------------------------|
G|-------------4-----------------------|----------------------------------|
D|----------------------------------7--|-(7)------------------------------|
A|-------------------------------------|----------------------------------|
E|-------------------------------------|----------------------------------|



      Asus4         A
     (Gsus4)       (G)
e|------5---5-------5--(5)--------|-(5)--------------------------|
B|----0h3---0-------0--(0)--------|-(0)--------------------------|
G|--------------4-----------------|------------------------------|
D|--------------------------------|------------------------------|
A|--------------------------------|------------------------------|
E|--------------------------------|------------------------------|
 |
e|----10----9-------9---(9)-------|-(9)--------------------------|
B|----10----10------10--(10)------|-(10)-------------------------|
G|----11----9-------9---(9)-------|-(9)--------------------------|
D|--------------------------------|------------------------------|
A|--------------------------------|------------------------------|
E|--------------------------------|------------------------------|




Intro

| A                        | D           D/E           |
 (G)                        (C)         (C/D)

| A                        | G#m    F#m/C#      C#aug  |
 (G)                        (F#m)  (Em/B)      (Baug)


Verse 1

            F#m      C#7
           (Em)     (B7)
When youíre down and troubled
        F#m    C#7     F#m
       (Em)   (B7)    (Em)
And you need a helping hand
    Bm7      D/E                    A                A
   (Am7)    (C/D)                  (G)              (G)
And nothing, nothingís going right
G#m7                C#7
(F#m7)             (B7)
Close your eyes and think of me
    F#m7   C#7     F#m7
   (Em7)  (B7)    (Em7)
And soon I will be there
   Bm7
  (Am7)
To brighten up
C#m7              E7sus4
(Bm7)            (D7sus4)
Even your darkest night


Chorus

         Amaj7       Amaj7
        (Gmaj7)     (Gmaj7)
You just call out my name
        Dmaj7           Bm7    E7sus4
       (Cmaj7)         (Am7)  (D7sus4)
And you know wherever I am
A         Amaj7    A
(G)      (Gmaj7)  (G)
Iíll come running, oh yeah baby
                  Esus4      Esus4
                 (Dsus4)    (Dsus4)
To see you again
A                         Amaj7
(G)                      (Gmaj7)
Winter, Spring, Summer or Fall
D                    F#m7
(C)                 (Em7)
All you got to do is call
         Dmaj7     C#m7  D/E   E7sus4
        (Cmaj7)   (Bm7) (C/D) (D7sus4)
And Iíll be there, yeah, yeah, yeah
A          D
(G)       (C)
You got a friend
A         G#m7   C#7sus4   C#7
(G)       (F#m) (B7sus4)  (B7)


Verse 2

F#m        C#7
(Em)      (B7)
If the sky above you
            F#m      C#7     F#m
           (Em)     (B7)    (Em)
Should turn dark and full of clouds
         Bm7       
        (Am7)     
And that old North wind
D/E             A                   A
(C/D)          (G)                 (G)
Should begin to blow
F#m7           C#7
(Em7)         (B7)
Keep your head together
    F#m7    C#7      F#m7
   (Em7)   (B7)     (Em7)
And call my name out loud, now
Bm7          C#m7               E7sus4
(Am7)       (Bm7)              (D7sus4)
Soon Iíll be knocking upon your door


Chorus

         Amaj7       Amaj7
        (Gmaj7)     (Gmaj7)
You just call out my name
        Dmaj7           Bm7    E7sus4
       (Cmaj7)         (Am7)  (D7sus4)
And you know wherever I am
A          Amaj7      A
(G)       (Gmaj7)    (G)
Iíll come running, oh yes I will
                  Esus4      Esus4
                 (Dsus4)    (Dsus4)
To see you again
A                         Amaj7
(G)                      (Gmaj7)
Winter, Spring, Summer or Fall
D                    F#m7
(C)                 (Em7)
All you got to do is call
         Dmaj7     C#m7  D/E   E7sus4
        (Cmaj7)   (Bm7) (C/D) (D7sus4)
And Iíll be there, yeah, yeah, yeah


Bridge

      D/G             G
     (C/F)           (F)
Hey, ainít it good to know
     D
    (C)
That youíve got a friend
     A          Asus4  A   Amaj7
    (G)        (Gsus4)(G) (Gmaj7)
When people can be so cold
        D
       (C)
Theyíll hurt you
    Gmaj7
   (Fmaj7)
And desert you
              F#m7                  B7sus4  B7
             (Em7)                 (A7sus4)(A7)
Well, theyíll take your soul if you let them
              D/E                E13
             (C/D)              (D13)
Oh yeah, but donít you let them



Chorus

         Amaj7       Amaj7
        (Gmaj7)     (Gmaj7)
You just call out my name
        Dmaj7           Bm7    E7sus4
       (Cmaj7)         (Am7)  (D7sus4)
And you know wherever I am
A         Amaj7    A
(G)      (Gmaj7)  (G)
Iíll come running
           Esus4
          (Dsus4)
To see you again
         Esus4
        (Dsus4)
Oh baby, donít you know about
A                         Amaj7
(G)                      (Gmaj7)
Winter, Spring, Summer or Fall
D                             F#m7
(C)                          (Em7)
Hey now, all you got to do is call
           Dmaj7     C#m7  D/E   E7sus4
          (Cmaj7)   (Bm7) (C/D) (D7sus4)
Lord, Iíll be there, yes I will


Outro

             A        D
            (G)      (C)
Youíve got a friend
             A        D
            (G)      (C)
Youíve got a friend

Ainít it good to know
       A
      (G)
Youíve got a friend
         D
        (C)
Ainít it good to know
             A
            (G)
Youíve got a friend
   D
  (C)
Oh yeah yeah
             Asus4    A
            (Gsus4)  (G)
Youíve got a friend




/    slide up
\    slide down
h    hammer-on
p    pull-off
nh   natural harmonic
~~   vibrato


=====================================================================  03 August 2011





Comments


Popular James Taylor tabs & chords
Handy Man Chords
Hey Mister Thats Me Up On The Jukebox Chords
How's The World Treating You Chords
In The Bleak Midwinter 1 Chords
My Romance Chords
Your Smiling Face Chords
Isn't It Nice To Be Home Again Tabs
Mexico 1 Tabs
Millworker Ukulele
Riding On A Railroad Ukulele


Song lyrics



↑ Back to top | Tablatures and chords are parodies/interpretations of the original songs. You may use it for private study, scholarship, research or language learning purposes only
© 2014 AZChords.com Contact us | Privacy policy | DMCA | Add/correct tabs | Request tabs | Top 50 tabs