>
 >
My Travelling Star

My Travelling Star Guitar Tabs

James Taylor - My Travelling Star chords, tabs, tablatures, lyrics

Guitar lessons | Add/correct | Request | Top 50 tabs Artists:  A B C D E F G H I J K L M N O P Q R S T U V W X Y Z 0-9

My Travelling Star Guitar Tabs – James Taylor

CD, Sheet music, Poster

Do you like My Travelling Star? Share with your friends now
ChordsTabsUkulele
Album : October Road
This song is one of James Taylor's most wonderful.
Here you have the tab and the chords.
Just listen to the song for the rythm.

Well, ENJOY !

PS : This is my first tab so please, rate it.

Intro and break

  A               A(f#bass)       Dmaj7          E6

|----0---------------0-----------------0-------------0h2p0-------|
|0h2-------2---0-h-2-------2---0-h-2---------0---0h2------020--0-|
|------2h4---2---------2h4---2-------2-----2---2-------------2---|
|--------------------------------0-------0-----------------------|
|0-------0-------------------------------------------------------|
|----------------2-------2-----------------------0-------0-------|

  A               A(f#bass)       Dmaj7           E6
 ----0---------------0-----------0h2---0-------------------------|
 0p2-------2---0-h-2-------2---0-------------2---2-----0-------0-|
 ------2h4---2---------2h4---2-------2-----2---2-----1-----1h2---|
 --------------------------------0-------0---------2-------------|
 0-------0-------------------------------------------------------|
 ----------------2-------2-----------------------0-------0-------|

Verse


A / / / A (f#bass) / / / Bm7 / / / Bm7 (e bass) / / /

A / / / A (f#bass) / / / Bm7 / / / Bm7 (e bass) / / /

A / / / Em7 / / / Dmaj7 / / / C#7 / / /

F#m / / / F#m7 / / / Bm7 / / / Bm7 (e bass) / / /

Chorus


Dmaj7 / C#7 / F#m / Em7 /

Dmaj7 / C#7 / F#m / Em7 /

Dmaj7 / C#7 / F#m / Em7 /

Dmaj7 / C#7 / F#m / Em7 /


Chords


     A    A(f#bass)   Dmaj7    E6     Bm7     Bm7(e bass)  Em7   C#7
|----0------2-----------x-------0------x-------0------------0------x-|
|----2------x-----------x-------2------2-------x------------2------4-|
|----2------2-----------0-------2------4-------4------------2------3-|
|----2------2-----------2-------1------2-------2------------0------4-|
|----0------2-----------2-------2------3-------3------------3------2-|
|----0------0-----------0-------0------2-------2------------0------0-|

     F#m       F#m7
-----2---------2---------------------|
-----4---------4---------------------|
-----4---------2---------------------|
-----2---------2---------------------|
-----2---------2---------------------|
-----2---------2---------------------|

Watch my back and light my way
My traveling star, my traveling star
Watch over all of those born St. Christopher's Day
Old road dog, young runaway
They hunger for home but they cannot stay
They wait by the door
They stand and they stare
They're already out of there
They're already out of there

My daddy used to ride the rails
So they say, so they say
Soft as smoke and as tough as nails
Boxcar Jones, old walking man
Coming back home was like going to jail
The sheets and the blankets and babies and all
No he never did come back home
Never that I recall


Nevermind the wind
Nevermind the rain
Nevermind the road
leading home again
Never asking why
Never knowing when
Every now and then
There he goes again


She had a cat and a dog named Blue
My traveling star, my traveling star
A big old stove and a fireplace, too
Old road dog, young runaway
She told me she loved me like it was true
I knew I should stay
I knew I would go
Run run run away
Run run run away, boy

Run before the wind
Run before the rain
Over yonder hill
Just around the bend
Never knowing why
Never knowing when
Every now and then
There you go again

Tie me up and hold me down
Oh, my traveling star
Bury my feet down in the ground
Oh, old road dog
Claim my name from the lost and found
And let me believe this is where I belong
Shame on me for sure
For one more highway song

My traveling star My traveling star





Comments


Popular James Taylor tabs & chords
Blossom Bass Tabs
A Junkie's Lament Chords
Bartender Blues Chords
Hey Mister Thats Me Up On The Jukebox Chords
Like Everyone She Knows Chords
Something In The Way She Moves 1 Tabs
I Was A Fool To Care Ukulele
One Morning In May Ukulele
She Thinks I Still Care Ukulele
Something In The Way She Moves Ukulele


Song lyrics



↑ Back to top | Tablatures and chords are parodies/interpretations of the original songs. You may use it for private study, scholarship, research or language learning purposes only
© 2014 AZChords.com Contact us | Privacy policy | DMCA | Add/correct tabs | Request tabs | Top 50 tabs