>
 >
Mexico 2

Mexico 2 Guitar Tabs

James Taylor - Mexico 2 chords, tabs, tablatures, lyrics

Guitar lessons | Add/correct | Request | Top 50 tabs Artists:  A B C D E F G H I J K L M N O P Q R S T U V W X Y Z 0-9

Mexico 2 Guitar Tabs – James Taylor

CD, Sheet music, Poster

Do you like Mexico 2? Share with your friends now
ChordsTabsTabs v2Tabs v3Ukulele
WOW!  This tab took me a very very long time
to type up, because of my attention to detail
on this specific song.  I think the result is
quite accurate though!  I hope this tab helps
you play this rather cool song, however, if you
wish to use this tab on a site or claim credit 
for it, please inform me before hand.  Thanks!

CAPO 2ND FRET

INTRO:
------
    D     A   D     Bm      A          A/B  Em      Bm
E|--2-----0---2-------------0-------0---------3-2---------0-0--|
B|----3-----------------3---------2-----------------3----------|
G|------2---2---2---------------2---------2-------0-----4------|
D|--0---------0-------4---4---------------------------4--------|
A|--------0---------2-------0-0-------0-2-----------2-------2--|
E|------------------------------------------0------------------|

  Cadd9     G           C D       A   D   Bm      A
E|--------------------------2-----0---2-----------0-------0----|
B|------3-3-----3-------------3---------------3---------2------|
G|----0-------0-----0---0-------2---2---2-------------2--------|
D|------------------------0-----------0-----4---4--------------|
A|--3-------------2---3-----------0-------2-------0-0----------|
E|----------3--------------------------------------------------|

   A/B  Em      Bm       Cadd9    G5
E|--------3-2---------0-0-------------3--------------|
B|--------------3-------------3-3-------3------------|
G|----2-------0-----4-------0-------0-----0-------0--|
D|----------------4----------------------------------|
A|--2-----------2-------2-3-----2--------------------|
E|------0-------------------------3------------------|



VERSE 1:
--------
    G     D       A       G
E|--3-----2---------------------------|
B|----3-------3---5---3p2-------------|
G|------4-------2---------4-----------|
D|------------------------------------|
A|------------------------------------|
E|------------------------------------|

          D       A         G
E|--3-----2---------------------------|
B|----3-------3---5---3p2-------------|
G|------4-------2-----------4---------|
D|------------------------------------|
A|------------------------------------|
E|------------------------------------|

          D       A         G
E|--3-----2---------------------------|
B|----3-------3-----2-3p2-------------|
G|--------------2-----------4---------|
D|------------------------------------|
A|------------------------------------|
E|------------------------------------|



CHORUS:
-------
      E      C#m      B       A       E        C#m      B       A
E|2s4-----------------------------------4-----------------------------|
B|----5---5-------4-----------------------------5-------4-------------|
G|------4-----6-----------6---------2s4-----6---------------6---------|
D|--------------6-----------------------------------6s4---------------|
A|--------------------------------------------------------------------|
E|--------------------------------------------------------------------|

      E      C#m      B       A       G        D/F#
E|2s4-----------------------------------------------------------------|
B|----5---5-------4---------------------------------------------------|
G|------4-----6-------4---6-----------4-----2-------------------------|
D|--------------6-----------------------------------------------------|
A|--------------------------------------------------------------------|
E|--------------------------------------------------------------------|

    E
E|----------------------------------|
B|----------------------------------|
G|--0-1-2-0-1-----------------------|
D|----------------------------------|
A|----------------------------------|
E|----------------------------------|



VERSE 2:
--------
    G     D       A         G
E|--3-----2---------------------------|
B|----3-------3---5---3p2-------------|
G|------4-------2-----------4---------|
D|------------------------------------|
A|------------------------------------|
E|------------------------------------|

          D       A         G
E|--3-----2---------------------------|
B|------------3---2---3p2-------------|
G|--------------2-----------4---------|
D|------------------------------------|
A|------------------------------------|
E|------------------------------------|

          D       A         G
E|--3-----2---------------------------|
B|----3-------3-----2-3p2-------------|
G|--------------2-----------4---------|
D|------------------------------------|
A|------------------------------------|
E|------------------------------------|



CHORUS:
-------
      E      C#m      B       A       E        C#m      B       A
E|2s4-------------------------------2s4-------------------------------|
B|----5---5-------4---------------------5---5-------4-----------------|
G|------4-----6-----------6---------------4-----6-----------6---------|
D|--------------6---------------------------------6-------------------|
A|--------------------------------------------------------------------|
E|--------------------------------------------------------------------|

      E      C#m      B       A       G     D/F#
E|2s4-----------------------------------------------------------------|
B|----5---5-------4---------------------------------------------------|
G|------4-----6-------4---6-----------4-----2-------------------------|
D|--------------6-----------------------------------------------------|
A|--------------------------------------------------------------------|
E|--------------------------------------------------------------------|



INTERLUDE:
----------
    Bm7           E
E|----------------------------|
B|------3-3-3p2-2-5-----------|
G|------2-2-2-----------------| PLAY
D|--2s4-----4p2---------------|  x4
A|----------------------------|
E|----------------------------|



VERSE:
------
    G     D       A       G
E|--3-----2---------------------------|
B|----3-------3---5---3p2-------------|
G|------4-------2---------4-----------|
D|------------------------------------|
A|------------------------------------|
E|------------------------------------|

          D       A Asus4 A G
E|--3-----2---------------------------|
B|----3-------3---5---3p2-------------|
G|------4-------2-----------4---------|
D|------------------------------------|
A|------------------------------------|
E|------------------------------------|

          D       A           G
E|--3-----2---------------------------|
B|----3-------3---------3p2-----------|
G|------2-------2-----------4---------|
D|------------------------------------|
A|------------------------------------|
E|------------------------------------|



FINAL CHORUS:
-------------
      E      C#m      B       A       E        C#m      B       A
E|2s4-----------------------------2s4---------------------------------|
B|--------------------------------------------------------------------|
G|2s4-----------------------------2s4---------------------------------|
D|--------------------------------------------------------------------|
A|--------------------------------------------------------------------|
E|--------------------------------------------------------------------|

      E      C#m      B       A     G       D/F#
E|2s4-----------------------------------------------------------------|
B|------------------4-------------------------------------------------|
G|2s4---------------------6---------4-----2---------------------------|
D|--------------------------------------------------------------------|
A|--------------------------------------------------------------------|
E|--------------------------------------------------------------------|

      E      C#m      B       A       E        C#m      B       A
E|2s4-----------------------------2s4---------------------------------|
B|----------------4-------------------------------4-------------------|
G|2s4---------------------6-------2s4---------------------6-----------|
D|--------------------------------------------------------------------|
A|--------------------------------------------------------------------|
E|--------------------------------------------------------------------|

      E      C#m      B       A     G       D/F#
E|2s4-----------------------------------------------------------------|
B|------------------4-------------------------------------------------|
G|2s4---------------------6---------4-----2---------------------------|
D|--------------------------------------------------------------------|
A|--------------------------------------------------------------------|
E|--------------------------------------------------------------------|

    E
E|----------------------------------|
B|----------------------------------|
G|--0-1-2-0-1-----------------------|
D|----------------------------------|
A|----------------------------------|
E|----------------------------------|



OUTRO:
------
      E        C#m    B       A
E|----------------------------------|
B|----5-----4-----------------------|
G|------------------6-----4---------| REPEAT
D|4s6-------------------------------| TO FADE
A|----------------------------------|
E|----------------------------------|



---------------------------------------------
---------------------------------------------





Comments


Popular James Taylor tabs & chords
Fire And Rain Chords
Handy Man 2 Chords
Isn't It Nice To Be Home Again Chords
My Traveling Star Chords
Only One Chords
Shower The People 1 Chords
Soldiers Chords
Let It Fall Down Tabs
Fire And Rain Ukulele
My Romance Ukulele


Song lyrics



↑ Back to top | Tablatures and chords are parodies/interpretations of the original songs. You may use it for private study, scholarship, research or language learning purposes only
© 2014 AZChords.com Contact us | Privacy policy | DMCA | Add/correct tabs | Request tabs | Top 50 tabs