» » »

Like Everyone She Knows Tabs (ver.2)

Artists:  A B C D E F G H I J K L M N O P Q R S T U V W X Y Z # 

Like Everyone She Knows Tabs (ver.2)

James Taylor
Rating:
0/5 (0 votes)

Hard to play? Try these video lessons and learn fast.
                (Intro)
Like Everyone She Knows-James Taylor


Capo II

e|---------------0----------|-------------------0------------|
B|---------2--3--------0--2-|-------0------------------0-----|
G|-----2---------------1--2-|-----2-------1---------------1--|
D|---2-----2--4-------------|---2------------2---------------|
A|-0----------------0-------|-0------------------------------|
E|--------------------------|----------2-----------2---------|
        
                                      1st ending                           (rpt)
e|------0h2p0--------------------|0-------0--------0-------------------------|
B|----------------2---0----------|--------------------0h2-------------------o|
G|---2--------------2----------1-|--2------4---------------------------------|
D|0-------------------------2----|-------------------------------------------|
A|-------------2-----------------|--------------------0---------------------o|
E|-----------------------0-------|-----2------4------------------------------|

2nd ending, go on  *  this part is tricky-just take it slow the first few times.  
e|----------0--5--|---------5-----------0--------0---0--0--0------------0-----|
B|-------0h2------|------------------------------2h3-2--0--0------2--------2--|
G|-2--------------|-----2---------------------2----------------------2--------|
D|----------------|------------------6-----0----------------------------------|
A|----0-----------|--------------4----------------------------0---------------|
E|----------------|--2--------------------------------------------------------|
                    1st ending
e|-0---0----------|0-----0--------0-----0-0--3--0---------------|
B|-0---------0----|0--------0-----2p0---0-2--2—-2p0---0---------|back to *
G|-----2--------0-|-------------------2-------------2-----2p1---|
D|----------------|--------------------------0----------------2-|
A|----------------|------------0--------------------------------|
E|-4------2-------|---4-----------------------------------0-----|

  2nd ending
e|-----------------------------|
B|-0---------------------------|
G|-------2--1------------------|
D|-------------4--2--0---------|
A|---------------------4--2--0-|
E|----0------------------------|
      (basically same as beginning)
e|---------------0----------|-------------------0------------|
B|---------2--3--------0--2-|-------0------------------0-----|
G|-----2---------------1--2-|-----2-------1---------------1--|
D|---2-----2--4-------------|---2------------2---------------|
A|-0----------------0-------|-0------------------------------|
E|--------------------------|----------2-----------2---------|


e|--------0h2p0--------------------------------------------------------------|
B|-------------------2-----0-------------------------------------------------|
G|----2-----------------2-------------1--2-----------------------------------|
D|-0-------------------------------2-----------------------------------------|
A|---------------2-------------------------0---------------------------------|
E|-----------------------------0---------------------------------------------|


Thats it!
Good luck!
~Brian M.
            
Hard to play? Try these video lessons and learn fast. | Correct




comments powered by Disqus
↑ Back to top | Tablatures and chords are parodies/interpretations of the original songs. You may use it for private study, scholarship, research or language learning purposes only