>
 >
Fire And Rain

Fire And Rain Guitar Tabs

James Taylor - Fire And Rain chords, tabs, tablatures, lyrics

Guitar lessons | Add/correct | Request | Top 50 tabs Artists:  A B C D E F G H I J K L M N O P Q R S T U V W X Y Z 0-9

Fire And Rain Guitar Tabs – James Taylor

CD, Sheet music, Poster

Do you like Fire And Rain? Share with your friends now
ChordsChords v2Chords v3TabsTabs v2Tabs v3Tabs v4Ukulele
----------------------------------------------------------------

      JAMES TAYLOR - FIRE AND RAIN. From SWEET BABY JAMES album.
                     Released 1970.

----------------------------------------------------------------







Just yesterday morning they let me know you were gone.
Suzanne, the plans they made put an end to you.
I walked out this morning and I wrote down this song 
I just can't remember who to send it to.

I've seen fire and I've seen rain. 
I've seen sunny days that I thought would never end.
I've seen lonely times when I could not find a friend, 
but I always thought that I'd see you again.

Won't you look down upon me, Jesus,
You've got to help me make a stand.
You've just got to see me through another day.
My body's aching and my time is at hand 
and I won't make it any other way.

Oh, I've seen fire and I've seen rain. 
I've seen sunny days that I thought would never end.
I've seen lonely times when I could not find a friend, 
but I always thought that I'd see you again.

Been walking my mind to an easy time, 
my back turned towards the sun.
Lord knows when the cold wind blows it'll turn your head around.
Well, there's hours of time on the telephone line 
to talk about things to come.
Sweet dreams and flying machines in pieces on the ground.

Oh, I've seen fire and I've seen rain. .
I've seen sunny days that I thought would never end.
I've seen lonely times when I could not find a friend, 
but I always thought that I'd see you baby, 
one more time again, now.

Thought I'd see you one more time again.
There's just a few things coming my way this time around, now.
Thought I'd see you, thought I'd see you, fire and rain, now.






       Use a capo on the 3rd fret





                                        D      D                   A Asus2
  A                 G6              Dsus2 Dsus2    A             Asus4 A
e|----5--- -------- ----3--- --------|0H2-0--H 2---0--- -------- --------|        
B|---------5-----------------3-------|3---3--------2-------------3-2P0---|
G|4/6----------6----6\4----------4---|2--------2---2-------------2-2-2-2-|
D|---------------------------------0-|-----------------------------------|
A|0----------------------------------|-------------0----0---0-0----------|
E|------------------0----------------|-----------------------------------|



    A               E                 
  Asus2                               G              Gmaj7
e|-------- -------- -------- --------|-------- ------2- -------- --------|
B|0H2------2--------0----------------|------3-------------3--------3-----|
G|2---2-------------1--------1-------|----0------0------------0--------0-|
D|2-----------------2---2----------0-|--0----------0---------------------|
A|0------------0---------------------|-----------------------------------|
E|------------------0----------------|3--------3---3----3---3----3-------|



                                                                 A
  A                 G6                D                 A     Asus2  Asus2
e|-------- 5------- 3------- --------|2------- 2------- ------0- ----0---|
B|2--------2--------3---3------------|3--------3--------2-----0-H2---0---|
G|2--------2--------4--------4-------|2--------2--------2-----2--2-2-2---|
D|2--------2-------------------------|0-----------------2----------------|
A|0----------------------------------|------------------0----------------|
E|------------------3----------------|-----------------------------------|
    Just                     they let     you  were gone.
       yesterday morning         me know

    A                                
  Asus2             E                 G              Gmaj7
e|0------- 0------- -------- --------|-------- -------- 2------- --------|
B|0H2------2--------0--------0-------|---------3----------3--------3-----|
G|2---2----2--------1---1----1-------|------------------------0------0-0-|
D|------------------2--------2-------|----0------------------------------|
A|0----------------------------------|-----------------------------------|
E|------------------0----------------|3------------3--------3--------3---|
           Suzanne,     they made     end to you.
                the plans       put an



e|-------- 5------- 3------- --------|2------- 2------- ------0- ----0---|
B|-------------5--\-3--------3-------|3--------3--------2-----0-H2---0---|
G|----6--------6--------4--------4---|2--------2--------2-----2--2-2-2---|
D|7----------------------------------|------------------2----------------|
A|0----------------------------------|0-----------------0----------------|
E|------------------0----------------|-----------------------------------|
         I walked   morning     and I wrote down 
              out this                         this song 



e|0------- -------- -------- --------|-------- -------- 2------- --------|
B|0H2------2--------0--------0-------|---------3----------3--------3-----|
G|2---2-------------1--------1-------|---------0-----0--------0--------0-|
D|------------------2---2----2-------|----0------------------------------|
A|0----------------------------------|-----------------------------------|
E|------------------0----------------|3------------3--------3--------3---|
         I just can't        who to send it to.
                  remember

                                               A 
  D        Dmaj7    Bm7      E11      A     Asus2  Asus2  A
e|2------- 2------- 2------- 2-------|------0- ----0--- 0------- 0-------|
B|3--------3--------3--------3-------|2-----0-H2---0----0H2------2-------|
G|2--------2--------2--------2-------|2-----2----2-2----2---2------2-----|
D|0--------------------------2-------|2----------------------------------|
A|---------4--------2----------------|0-----------------0----------------|
E|-----------------------------------|-----------------------------------|
          I've seen fire and I've seen rain.                       I've 
                                                                     seen



e|2------- 2------- 2------- 2-------|------0- ----0--- 0------- 0-------|
B|3--------3--------3--------3-------|2-----0-H2---0----0H2------2-------|
G|2--------2--------2--------2-------|2-----2----2-2----2---2--------2---|
D|0--------------------------2-------|2----------------------------------|
A|---------4--------2----------------|0-----------------0----------------|
E|-----------------------------------|-----------------------------------|
    sunny   that I     would never end.                            I've 
       days      thought                                             seen



e|2------- 2------- 2------- 2-------|------0- ----0--- 0------- 0-------|
B|3--------3--------3--------3-------|2-----0-H2---0----0H2------2-------|
G|2--------2--------2--------2-------|2-----2----2-2----2---2------------|
D|0--------------------------2-------|2----------------------------------|
A|---------4--------2----------------|0-----------------0----------------|
E|-----------------------------------|-----------------------------------|
  lonely     when I could not find a                                 but I
      times                        friend,

                                                                       x
  G        D        Dsus2    Em7      A7sus2
e|-------- -------- -------- --------|0---0-0- 0-0-0-0- 0-0-0-0- 0-0-0-0-|
B|0----------------------------------|0---0-0--0-0-0-0--0-0-0-0--0-0-0-0-|
G|0--------2--------2--------0-------|0---0-0--0-0-0-0--0-0-0-0--0-0-0-0-|
D|0--------0--------0--------0-------|2---2-2--2-2-2-2--2-2-2-2--2-2-2-2-|
A|-----------------------------------|0---0-0--0-0-0-0--0-0-0-0--0-0-0-0-|
E|3--------2--------0--------0-------|-----------------------------------|
  always   that I'd see you  again.
      thought


  X   x x  X   X      X X      X X   

e|0---0-0- 0-0-0-0- 0-0-0-0- 0-0-0---|
B|0---0-0--0-0-0-0--0-0-0-0--0-0-0---|
G|0---0-0--0-0-0-0--0-0-0-0--0-0-0---|
D|2---2-2--2-2-2-2--2-2-2-2--2-2-2---|
A|0---0-0--0-0-0-0--0-0-0-0--0-0-0---|
E|-----------------------------------|                          
                                Won't you




e|-------- 5------- 3------- --------|2------- 2------- ------0- ----0---|
B|2--------2--------3---3----3-------|3--------3--------2-----0-H2---0---|
G|2--------2--------4--------4-------|2--------2--------2-----2--2-2-2---|
D|2--------2-------------------------|0-----------------2----------------|
A|0----------------------------------|------------------0----------------|
E|------------------3----------------|-----------------------------------|
  look down   me, Jesus,       You've  help me make a stand.
         upon                    got to



e|0------- 0------- -------- --------|-------- -------- 2------- --------|
B|0H2------2--------0--------0-------|---------3----------3--------3-----|
G|2---2----2--------1---1----1-------|---------------0--------0--------0-|
D|------------------2--------2-------|----0------------------------------|
A|0----------------------------------|-----------------------------------|
E|------------------0----------------|3---------------------3--------3---|
    You've just     see me  through another day.    
              got to    



e|-------- 5------- 3------- 3-------|2------- 2------- ------0- ----0---|
B|---------5--------3--------3-------|3--------3--------2-----0-H2---0---|
G|----6-----------------4--------4---|2--------2--------2-----2--2-2-2---|
D|7----------------------------------|------------------2----------------|
A|0----------------------------------|0-----------------0----------------|
E|------------------0----------------|-----------------------------------|
       My  body's   aching   and my   time is  at hand       
            



e|0------- 0------- -------- --------|-------- -------- 2------- --------|
B|0H2------2--------0--------0-------|---------3----------3--------3-----|
G|2---2--------2----1--------1-------|---------0--------------0--------0-|
D|------------------2--------2-----0-|----0------------------------------|
A|0----------------------------------|-----------------------------------|
E|------------------0----------------|3------------3--------3--------3---|
      and  I won't  make it  any     other way.   
                



e|2------- 2------- 2------- 2-------|-------- -------- -------- --------|
B|3--------3--------3--------3-------|2--------0H2P0----0-2P0----0-------|
G|2--------2--------2--------2-------|2---2----2-2---2--2-2---2--2-2-----|
D|0--------------------------2-------|2---2------------------------------|
A|---------4--------2----------------|0----------------------------------|
E|-----------------------------------|-----------------------------------|
  Oh,     I've seen fire and I've seen rain.                       I've 
                                                                     seen



e|2------- 2------- 2------- 2-------|------0- ----0--- 0------- 0-------|
B|3--------3--------3--------3-------|2-----0-H2---0----0H2------0H2P0---|
G|2--------2--------2--------2-------|2-----2----2-2----2---2----------2-|
D|0--------------------------2-------|2----------------------------------|
A|---------4--------2----------------|0-----------------0--------0-------|
E|-----------------------------------|-----------------------------------|
    sunny   that I     would never end.                            I've 
       days      thought                                             seen



e|2------- 2------- 2------- 2-------|------0- ----0--- 0------- --------|
B|3--------3--------3--------3-------|2-----0-H2---0----0H2--------2-----|
G|2--------2--------2--------2-------|2-----2----2-2----2-----2----------|
D|0--------------------------2-------|2----------------------------------|
A|---------4--------2----------------|0-----------------0----------------|
E|-----------------------------------|-----------------------------------|
  lonely     when I could not find a                                 but I
      times                        friend,



e|-------- -------- -------- --------|0---0-0- 0-0-0-0- 0-0-0-0- 0-0-0-0-|
B|0----------------------------------|0---0-0--0-0-0-0--0-0-0-0--0-0-0-0-|
G|0--------2--------2--------0-------|0---0-0--0-0-0-0--0-0-0-0--0-0-0-0-|
D|0--------0--------0--------0-------|2---2-2--2-2-2-2--2-2-2-2--2-2-2-2-|
A|-----------------------------------|0---0-0--0-0-0-0--0-0-0-0--0-0-0-0-|
E|3--------2--------0--------0-------|-----------------------------------|
  always   that I'd see you  again.
      thought


      X    X     X  X   X      X X

e|0---0-0- 0-0-0-0- 0-0-0-0- 0-0-0---|
B|0---0-0--0-0-0-0--0-0-0-0--0-0-0---|
G|0---0-0--0-0-0-0--0-0-0-0--0-0-0---|
D|2---2-2--2-2-2-2--2-2-2-2--2-2-2---|
A|0---0-0--0-0-0-0--0-0-0-0--0-0-0---|
E|-----------------------------------|                     
                                 Been                                                        

                                                                                              
   

e|-------- 5------- 3------- 3-------|2------- 2------- ------0- ----0---|
B|2--------2--------3--------3-------|3--------3--------2-----0-H2---0---|
G|2--------2--------4---4------------|2--------2--------2-----2--2-2-2---|
D|2--------2-------------------------|0-----------------2----------------|
A|0----------------------------------|------------------0----------------|
E|------------------3----------------|-----------------------------------|
  walking  mind     easy time,     my back turned  the sun.
         my    to an                           towards



e|0------- 0-0----- -------- --------|-------- -------- 2-2----- 5-------|
B|0H2------2-2------0--------0-------|---------3--------3-3------3-------|
G|2---2--------2-2--1--------1-------|---------0--------0-0--------0---0-|
D|------------------2--------2-----0-|----0------------------------------|
A|0----------------------------------|-----------------------------------|
E|------------------0----------------|3--------------3---------3---------|
      Lord knows    cold wind blows it'll your                    Well, 
             when the                 turn  head around.            there's
                                                                       hours


e|-------- 5------- 3------- --------|2------- 2------- ------0- ----0---|
B|-------------5--\-3--------3-------|3--------3--------2-----0-H2---0---|
G|----6--------6--------4--------4---|2--------2--------2-----2--2-2-2---|
D|7----------------------------------|------------------2----------------|
A|0----------------------------------|0-----------------0----------------|
E|------------------0----------------|-----------------------------------|
     of time on the      line     to  talk about   to come.
                  telephone                    things 



e|0------- 0------- -------- --------|-------- -------- 2------- --------|
B|0H2------2--------0--------0-------|---------3------------3--------3---|
G|2---2-------------1--------1-------|---------0----------0------0-------|
D|------------------2---2----2-----0-|----0------------------------------|
A|0----------------------------------|-----------------------------------|
E|------------------0----------------|3--------------3-----------3-------|
     Sweet dreams       machines   in pieces on the ground.
               and flying  

                                         X       X X    X     X  X X X

e|2------- 2------- 2------- 2-------|------0- ----0--- 0------- 0-------|
B|3--------3--------3--------3-------|2-----0-H2---0----0H2------2-------|
G|2--------2--------2--------2-------|2-----2----2-2----2---2--------2---|
D|0--------------------------2-------|2----------------------------------|
A|---------4--------2----------------|0-----------------0----------------|
E|-----------------------------------|-----------------------------------|
  Oh,     I've seen fire and I've seen rain.                       I've 
                                                                     seen



e|2------- 2------- 2------- 2-------|------0- ----0--- 0------- 0-------|
B|3--------3--------3--------3------0H2-----0-H2---0----0-2------0-2-----|
G|2--------2--------2--------2-------|2--2--2----2-2----2---2--------2---|
D|0--------------------------2-------|2----------------------------------|
A|---------4--------2----------------|0-----------------0----------------|
E|-----------------------------------|-----------------------------------|
    sunny   that I     would never end.                            I've 
       days      thought                                             seen



e|2------- 2------- 2------- 2-------|------0- ----0--- 0------- 0-------|
B|3--------3--------3--------3-------|2-----0-H2---0----0H2------2-------|
G|2--------2--------2--------2-------|2-----2----2-2----2---2--------2---|
D|0--------------------------2-------|2----------------------------------|
A|---------4--------2----------------|0-----------------0----------------|
E|-----------------------------------|-----------------------------------|
  lonely     when I could not find a                                 but I
      times                        friend,

                        x x  x x x                                                                

e|-------- -------- -------- --------|0---0-0- 0-0-0--- --0----- 0---0-0-|
B|0----------------------------------|0---0-0--0-0-0------0------0---0-0-|
G|0--------2--------2--------0-------|0---0-0--0-0-0------0------0---0-0-|
D|0--------0--------0--------0-------|2---2-2--2-2-2------2------2---2-2-|
A|-----------------------------------|0---0-0--0-0-0------0------0---0-0-|
E|3--------2--------0--------0-------|-----------------------------------|
  always   that I'd see you,              one   more time  again     now
      thought              baby


               X          X  X   X

e|0---0-0- 0-0-0--- 0-0-0-0- 0---0---|
B|0---0-0--0-0-0----0-0-0-0--0---0---|
G|0---0-0--0-0-0----0-0-0-0--0---0---|
D|2---2-2--2-2-2----2-2-2-2--2---2---|
A|0---0-0--0-0-0----0-0-0-0--0---0---|
E|-----------------------------------|                          
                      I thought  see you
                             I'd

        X  X              X  X   X      X X         X   X X X    X X X X
  A7sus2                              Asus2
e|0-0-0-0- 0-0-0--- --0-0--- 0---0-0-|0---0-0- --0-0--- --0-0--- 0---0-0-|
B|0-0-0-0--0-0-0------0-0----0---0-0-|0---0-0----0-0------0-0----0---0-0-|
G|0-0-0-0--0-0-0------0-0----0---0-0-|2---2-2----2-2------2-2----2---2-2-|
D|2-2-2-2--2-2-2------2-2----2---2-2-|2---2-2----2-2------2-2----2---2-2-|
A|0-0-0-0--0-0-0------0-0----0---0-0-|0---0-0----0-0------0-0----0---0-0-|
E|-----------------------------------|-----------------------------------|
      one    more time  again                                There's 
                                                                 just a few     



e|0---0-0- 0---0--- ----0--- 0---0---|0---0--- ----0--- 0---0-0- 0---0-0-|
B|0---0-0--0---0--------0----0---0---|0---0--------0----0---0-0--0---0-0-|
G|0---0-0--0---0--------0----0---0---|2---2--------2----2---2-2--2---2-2-|
D|2---2-2--2---2--------2----2---2---|2---2--------2----2---2-2--2---2-2-|
A|0---0-0--0---0--------0----0---0---|0---0--------0----0---0-0--0---0-0-|
E|-----------------------------------|-----------------------------------|
  things  comin' my way this time around  now               I thought 
                                                                 I'd see 
                                                                       you


e|0------- 0---0--- --0-0--- 0---0---|0-----0- 0-0-0-0- 0-0-0-0- --0-0---|
B|0--------0---0------0-0----0---0---|0-----0--0-0-0-0--0-0-0-0----0-0---|
G|0--------0---0------0-0----0---0---|2-----2--2-2-2-2--2-2-2-2----2-2---|
D|2--------2---2------2-2----2---2---|2-----2--2-2-2-2--2-2-2-2----2-2---|
A|0--------0---0------0-0----0---0---|0-----0--0-0-0-0--0-0-0-0----0-0---|
E|-----------------------------------|-----------------------------------|
         I thought           fire and rain now                   Nananaaa
              I'd see 
                    you
                                      ................Fade...............

e|0---0--- 0-0-0--- --0-0--- 0-0-0-0-|0-0----- --0-0--- --0-0--- 0---0-0-|
B|0---0----0-0-0------0-0----0-0-0-0-|0-0--------0-0------0-0----0---0-0-|
G|0---0----0-0-0------0-0----0-0-0-0-|2-2--------2-2------2-2----2---2-2-|
D|2---2----2-2-2------2-2----2-2-2-2-|2-2--------2-2------2-2----2---2-2-|
A|0---0----0-0-0------0-0----0-0-0-0-|0-0--------0-0------0-0----0---0-0-|
E|-----------------------------------|-----------------------------------|
  aaaaaaaaananaaanaaaaaananaaaanananaaaaaa
  .......................................................................









        B  Bend
        R  Release
        /  Slide up
        \  Slide down
        H  Hammer-on
        P  Pull-off
        ~  Vibrato
        +  Harmonic
        x  Mute note
        .  Play note like a dot in standard notation
        ^  Ties two notes together
        (. Pause





Comments


Popular James Taylor tabs & chords
In The Bleak Midwinter 1 Chords
Only One Chords
Secret Of Life Chords
Summer Breeze Chords
Bittersweet Tabs
Isn't It Nice To Be Home Again Tabs
Mexico Tabs
Dont Let Me Be Lonely Tonight Ukulele
Golden Moments Ukulele
Hey Mister Ukulele


Song lyrics



↑ Back to top | Tablatures and chords are parodies/interpretations of the original songs. You may use it for private study, scholarship, research or language learning purposes only
© 2014 AZChords.com Contact us | Privacy policy | DMCA | Add/correct tabs | Request tabs | Top 50 tabs