>
 >
Carolina In My Mind 1

Carolina In My Mind 1 Guitar Tabs

James Taylor - Carolina In My Mind 1 chords, tabs, tablatures, lyrics

Guitar lessons | Add/correct | Request | Top 50 tabs Artists:  A B C D E F G H I J K L M N O P Q R S T U V W X Y Z 0-9

Carolina In My Mind 1 Guitar Tabs – James Taylor

CD, Sheet music, Poster

Do you like Carolina In My Mind 1? Share with your friends now
Bass TabsChordsChords v2Chords v3Chords v4Chords v5TabsTabs v2Ukulele
-------------------------------------------------------------------------------
                             Carolina in my Mind - James Taylor
-------------------------------------------------------------------------------

Tuning:Standard with capo on 2nd fret

Intro
e|---0h2-------------3---------------3---------------3---------------|
B|-----------3-----------3-------3-----------3---------------3-------|
G|-2-----2---------0---------0-----------0---------0-----0---------0-|
D|---0-----------0---------------------------------------------------|
A|---------------------------------------------------0-----------0---|
E|-------------------3-------2-------0-----------0-------------------|

Chorus
e|---------2-------------------------------------------0-----------|
B|---------------3-------3-------3-------------------------0h2---0-|
G|-----2-------2-------4-------0-----------0-----0---2---2---------|
D|-0-----------------------------------2-----------------------2---|
A|---------------------------------------------2---0---------------|
E|-----------------3-------2-------0-------------------------------|

e|-------------------------0-------------------------------------0-|
B|---------0---------------0h2-------------3-----3-------2---------|
G|-----0-----------------2-------0-------0---------------------2---|
D|---------------------2-------2-------2---------------2-----------|
A|-------------2---0---------------------------2---0---------0-----|
E|-3-------------------------------0-------------------------------|

e|-----------------------------------------------------------------|
B|-------3-------3-------3---------0-----------------------------2-|
G|-----2-------2-------0-------0-----------2-------1-----1---------|
D|-0-----------------------------------0-------0-------0-------2---|
A|---------4-------2-------0-------------------------------0-------|
E|---------------------------------3-------2-------0---------------|

e|-----2---------------------------------0h2p0-----0h2---------2---|
B|-----3-3-------3-------3-------3-------3-------3---------------3-|
G|-----2-------0-------0-------0-------2-------2-------------------|
D|-0-------------------------------0-------------------0-----------|
A|---------2---------------0-------------------------------0h2-----|
E|-----------------0-----------------------------------------------|

Verse 1
e|-----------------------------------------------------------------|
B|-3-----------------------3-------------------------------------0-|
G|-2-------------------0-------------------0-----------------------|
D|-0-----------------------------------0---------------2-------2---|
A|-----------------3---------------------------2---0-------1-------|
E|---------------------------------3-------------------------------|

e|---------------------------------------0---0-----0-0-------------|
B|---------3---------------0-----------------0-----0-2p0---0h2-----|
G|-----------------------------0-----2-----------2-------2---------|
D|-----4-------4-------0---------------2---------------------------|
A|-2-------------------------------0-------------------------------|
E|-----------------3-----------------------------------------------|

e|---------------------------------------------------------0-------|
B|-0-----------------------3-----------3-----------3---------------|
G|-----------------2---------------2-------1-----------0-------0---|
D|-----------------------------------------------------------------|
A|-----------------------------0---2-----------------------0-------|
E|-3---------------2-----------------------0-------0---------------|

e|-----2-------2-------------------------0h2p0-----0h2-------------|
B|-----3-3-----3-3-------3-------3-------3-------3-------3-------3-|
G|-----2-------0-------0-------0-------2-------2-------2-------2---|
D|-0-------------------------------0-------------------------------|
A|---------2---------------0-------------------------------0h2-----|
E|-----------------0-----------------------------------------------|

Verse 2
e|---------2-------------------------------------------------------|
B|---------------3---------3---------------3---------------------3-|
G|-----2-------2-------0-------0-------0---------------------------|
D|-0---------------------------------------------------2-------4---|
A|-----------------3---------------------------2---0-------1-------|
E|---------------------------------3-------------------------------|

e|---------------------------------------0---0-------------0-------|
B|-------3-------3---------0-----------------0---------------2-----|
G|-----------------------------0-----2-----------2-------------2---|
D|-----4-------4-------0---------------2---------------------------|
A|-2-------------------------------0---------------0---------------|
E|-----------------3-----------------------------------------------|

e|---------------------------------------------------------0-------|
B|-0---------------3-------------------3-----------3---------------|
G|-0---------------2---------------2-------1-----------0-------0---|
D|-----------------------------------------------------------------|
A|---------------------------------2-----------------------0-------|
E|-3---------------2-----------------------0-------0---------------|

e|-----2---------------------------------0h2p0-----0h2-2-2-----2-2-|
B|-----3-3-------3-------3-------3-------3-------3-----3-3-----3-3-|
G|-----2-------0-------0-------0-------2-------2-------2-2-----2-2-|
D|-0-------------------------------0-------------------------------|
A|---------2---------------0-------------------------------0h2-----|
E|-----------------0-----------------------------------------------|

Chorus
e|---------2-------------------------------0-------0---0-----0-----|
B|---------------3-------3-------3---------0h2-----3p2-0-----------|
G|-----2-------2-------0-------0-------2-------2-------------2-----|
D|-0-------------------------------------2-------2-------------2---|
A|---------------------------------0-----------------------------0-|
E|-----------------3-------0---------------------------------------|

e|-------------------------0---------------------------------------|
B|---------0---------------0h2-------------3-----------------------|
G|-----0---------------2-------2-------0-------------------2-------|
D|-----------------------2-------2---------------------2-----------|
A|-------------2---0-------------------------------0---------------|
E|-3-------------------------------0-------------------------------|

e|-----------------------------------------------------------------|
B|-------3-------3-------3---------0-----------------------------2-|
G|-----2-------2-------0-------0-----------2-------1-----1---------|
D|-0-----------------------------------0-------0-------0-------2---|
A|---------4-------2-------0-------------------------------0-------|
E|---------------------------------3-------2-------0---------------|

e|-----2---------------------------------0h2p0-----0h2-------------|
B|-----3-3-------3-------3-------3-------3-------3-----------------|
G|-----2-------0-------0-------0-------2-------2-------------------|
D|-0-------------------------------0-------------------------------|
A|---------2---------------0---------------------------------------|
E|-----------------0-----------------------------------------------|

No guitar in verse 3

End of verse 3
e|-----------------------------------------0h2-----3-2p0---0h2-----|
B|-----------------------------------------------3-------3-----3---|
G|---------------------------------------2-----2-------------------|
D|-----------------------------------------------------------------|
A|-----------------------------------------------------------------|
E|-----------------------------------------------------------------|

Bridge
e|---------3-----------------------------------2-------------------|
B|-----3---------------------------------------2h3-----------------|
G|---------------------x-x-x---x-------x-x-x-------4---x-x-x---x---|
D|---------------------x-x-x---x-------x-x-x-----------x-x-x---x---|
A|-----------------0---------------2-------------------------------|
E|-3---------------------------------------------------------------|

e|-----------------------------------------------------0-0-0-------|
B|-----------------------------------------------------2-2-2-------|
G|-----x-x-x-----------x-x-x-----------x-x-------------2-2-2-------|
D|-----x-x-x-----------x-x-x-----------x-x-----0-------------------|
A|-------------------------------------------2-----0-----------2---|
E|-2-----------2---0-----------2---3-------3-----------------------|

e|---------------------------------------------0h2---------2-------|
B|-------------------------3---------------3---------3-----3-------|
G|---------------------4---------------2-----2-------------2-------|
D|-------------0-------------------0-------------------0-----------|
A|-3---------------------------------------------------------------|
E|-----------------3-----------------------------------------------|

e|---------------------------------0-------------------------------|
B|---------3---------------3---------------3---------------3-------|
G|-----0-------0-------0-------0-------0---------------0-------0---|
D|-----------------------------------------------------------------|
A|-3---------------2-------------------------------0---------------|
E|---------------------------------0-----------0-------------------|

e|-----2-------2-------2-------2---------0h2p0-----0h2-------------|
B|-----3-3-----3-3-----3-3-----3-3-------3-------3---------3-----3-|
G|-----2-------0-------0-------0-------2-------2-------2-------2---|
D|-0-------------------------------0-------------------------------|
A|---------2---------------0---------------------------------------|
E|-----------------0-----------------------------------------------|

Chorus
e|---------2-----------------------------------0-------------------|
B|---------------3-------3-------3-------------0h2---------------2-|
G|-----2-------2-------0-------0-------x-x-x-----------x-x-x---x---|
D|-0-----------------------------------x-x-x-2---------x-x-x---x---|
A|---------------------------------0---------------0---------------|
E|-----------------3-------0---------------------------------------|

e|-------------------------0---------------------------------------|
B|---------0---------------0h2-------------3-----------------------|
G|-----0-----------------2-----2-------0-------------------2-------|
D|---------------------2-------------------------------2-----------|
A|-------------2---0-------------------------------0---------------|
E|-3-------------------------------0-------------------------------|

e|-----------------------------------------------------------------|
B|-------3-------3-------3---------0-----------------------------2-|
G|-----2-------2-------0-------0-----------2-------1-----1---------|
D|-0-----------------------------------0-------0-------0-------2---|
A|---------4-------2-------0-------------------------------0-------|
E|---------------------------------3-------2-------0---------------|

e|-----2-----------------------------------------------------------|
B|-----3-3-------3-------3-------3-------3-----------------3-------|
G|-----2-------2-------0-------0-------0---------------0-------0---|
D|-0---------------------------------------------------------------|
A|---------------------------------------------2---0---------------|
E|---------2-------3-------2-------0-------------------------------|

Outro
e|-----------------------------------------------------------------|
B|-------3-------3-------3-------3-------3-------3-------3-------3-|
G|-----2-------2-------2-------2-------0-------0-------0-------0---|
D|-0---------------------------------------------------------------|
A|---------4-------2-------0-------------------------------0-------|
E|---------------------------------3-------2-------0---------------|

| /  slide up
| \  slide down
| h  hammer-on
| p  pull-off
| ~  vibrato
| +  harmonic
| x  Mute note
===============================================================================





Comments


Popular James Taylor tabs & chords
Ananas Chords
Fire And Rain 2 Chords
Frozen Man Chords
Handy Man 2 Chords
Steamroller 1 Chords
Bittersweet Tabs
Me And My Guitar Tabs
Somethings Wrong Tabs
Country Road Ukulele
Song For You Far Away Ukulele


Song lyrics



↑ Back to top | Tablatures and chords are parodies/interpretations of the original songs. You may use it for private study, scholarship, research or language learning purposes only
© 2014 AZChords.com Contact us | Privacy policy | DMCA | Add/correct tabs | Request tabs | Top 50 tabs