» » »

James Otto, For You Tabs (ver.1)

Artists:  A B C D E F G H I J K L M N O P Q R S T U V W X Y Z # 

For You Tabs (ver.1)

James Otto Tabs
Rating:
0/5 (0 votes)
For You lessons Tabs too difficult? Try these video lessons and learn fast
                This is my first tab so I hope it's ok... no one else had tabbed it yet so I thought I'd 
it a shot...It's not finished, when i finish I'll post more of it..Good song!
Thanks, James


TUNING: Open D

Intro:
D -|-------------0------------------------0-|
A -|------0--------------0--------0-------0-|
F#-|----0------0-------0--------0---0-----0-|
D -|--0------0-------0--------0-------0---0-|
A -|2-------------------------------------0-|
D -|-------4-------5--------0-------------0-|

First Verse:
D -|----0-----0--------0------0---------0-----|
A -|----0-----0------0---0----------0-----0---|
F#-|----0-----0----0-------0----------0-----0-|
D -|--0-----0---------------------0-----------|
A -|------------------------------------------|
D -|4-----5------0--------------0-------------|

D -|----0-----0--------0--------------0-----|
A -|----0-----0------0---0----------0---0---|
F#-|----0-----0----0-------0------0-------0-|
D -|--0-----0-------------------------------|
A -|-------------2-------------0------------|
D -|4-----5---------------------------------|

D -|----0-----0--------0-------------0------|
A -|----0-----0------0---0----------0---0---|
F#-|----0-----0----0-------0------0-------0-|
D -|--0-----0-------------------------------|
A -|-------------0-------------2------------|
D -|4-----5---------------------------------|
            

comments powered by Disqus
↑ Back to top | James Otto Tabs for For You. Lyrics for acoustic guitar and electric guitar. Tablatures and chords are parodies/interpretations of the original songs. You may use it for private study, scholarship, research or language learning purposes only