» » »

James Morrison, If You Don't Wanna Love Me Chords (ver.2)

Artists:  A B C D E F G H I J K L M N O P Q R S T U V W X Y Z # 

If You Don't Wanna Love Me Chords (ver.2)

James Morrison Tabs
 Rating:
4/5 (4 votes)
If You Don't Wanna Love Me lessons Tabs too difficult? Try these video lessons and learn fast
                -------------------------------------------------------------------------------
                            If You DOn't Wanna Love Me - James Morrison
-------------------------------------------------------------------------------


When you lower me down So deep that I, I can't get out
And when you're lost, lost and alone
Yes, you'd think it was the last place
You'd come back for more..

     G       G       Em      C       D       G     
E----3-------3-------3-------3-------2-------3-------|
B----3-------3-------3-------3-------3-------3-------|
G----0-------0-------0-------0-------2-------0-------|
D----0-------0-------2-------2-------0-------0-------|
A----2-------X-------2-------3-------X-------2-------|    (2x)
E----3-------2-------0-------x-------X-------3-------|


If you don't want me to leave
Then don't push me away
You'd rather blow out the lights
You can watch it all fade
But I'm going nowhere


     C       B       B7      Em      A7          
E----0-------X-------0-------0-------0--------|
B----1-------X-------0-------0-------2--------|
G----0-------4-------2-------0-------0--------|
D----2-------4-------1-------2-------2--------|
A----3-------2-------2-------2-------X--------|    
E----0-------X-------0-------x-------X--------|

I'm gonna stay
When you just wanna fight
When you're closing your eyes
Cause you don't wanna love me


     G       G       Em      C       D       G       B7
E----3-------3-------3-------3-------2-------3-------0----|
B----3-------3-------3-------3-------3-------3-------0----|
G----0-------0-------0-------0-------2-------0-------2----|
D----0-------0-------2-------2-------0-------0-------1----|
A----2-------X-------2-------3-------X-------2-------2----|    
E----3-------2-------0-------x-------X-------3-------X----|

I'm gonna stay
You can't push me too far
There's no space in my heart
Where I don't wanna love you


     Em      E#      A7      C       D       G     
E----0-------0-------0-------3-------2-------3-------|
B----0-------0-------2-------3-------3-------3-------|
G----0-------0-------0-------0-------2-------0-------|
D----2-------1-------2-------2-------0-------0-------|
A----2-------1-------0-------3-------X-------2-------|   
E----0-------0-------0-------x-------X-------3-------|
            
Submit corrections

comments powered by Disqus
↑ Back to top | James Morrison Chords for If You Don't Wanna Love Me. Lyrics for acoustic guitar and electric guitar. Tablatures and chords are parodies/interpretations of the original songs. You may use it for private study, scholarship, research or language learning purposes only