» » »

Broken Strings Bass tabs (ver.2)

Artists:  A B C D E F G H I J K L M N O P Q R S T U V W X Y Z # 

Broken Strings Bass tabs (ver.2)

James Morrison
Rating:
0/5 (0 votes)

Hard to play? Try these video lessons and learn fast.
                Instrument: Bass
Tuning: Standard - EADG
Created by: tuks6
Difficulty: novice
Figured out by ear, I think it's correct! Happy playing, and please rate! ;)

|-----------------------------------|
|-----------------------------------|
|---------------------4---------6---|
|--6-----2--------6---------2-------|

|----------------------------------------------|
|----------------------------------------------|
|----------1-----------------------------------|
|--2---4---------2---4---1-----2---4---1---2~--|

|-----------------------------------------------------------------|
|-----------------------------------------------------------------|
|--6-6-6-6-6-6-6-4-----------------4-4-4-4-4-4-4-3----------------|
|------------------6-6-6-6-6-6-6-6-----------------4-4-4-4-4-4-4-4|  (x2)

|----------------------------------------------------------------|
|----------------------------------------------------------------|
|----------------------------------4-4-4-4-4-4-4-3---------------|
|--2-2-2-2-2-2-2-4-6-6-6-6-6-6-6-6-----------------4-4-4-4-4-4---|

|--------------------------------------------------|
|--------------------------------------------------|
|--3-4-6--6--8-6-4---------------------------------|
|-------------------6-6-6-6-6-6-6-6-4-4-4-4-4-4-4-4|

|-----------------------------------------------------------------|
|-----------------------------------------------------------------|
|-----------------------------------------------------------------|
|--6-6-6-6-6-6-6-6-6-6-6-6-6-6-6-6-2-2-2-2-2-2-2-2-2-2-2-2-2-2-2-2|

|----------------------------------------------------|
|----------------------------------------------------|
|------------------4-4-4-4-4-4-4-4-----------------6~|
|--6-6-6-6-6-6-6-6-----------------2-2-2-2-2-2-2-2---|

|----------------------------------------------|
|----------------------------------------------|
|----------1-----------------------------------|
|--2---4---------2---4---1-----2---4---1---2~--|

|-----------------------------------------------------------------|
|-----------------------------------------------------------------|
|--6-6-6-6-6-6-6-4-----------------4-4-4-4-4-4-4-3----------------|
|------------------6-6-6-6-6-6-6-6-----------------4-4-4-4-4-4-4-4|  (x2)

|----------------------------------------------------------------|
|----------------------------------------------------------------|
|----------------------------------4-4-4-4-4-4-4-3---------------|
|--2-2-2-2-2-2-2-4-6-6-6-6-6-6-6-6-----------------4-4-4-4-4-4---|

|--------------------------------------------------|
|--------------------------------------------------|
|--3-4-6--6--8-6-4---------------------------------|
|-------------------6-6-6-6-6-6-6-6-4-4-4-4-4-4-4-4|

|--------------------------------------------------|
|--------------------------------------------------|
|----------------------------------4-4-4-4-4-4-4-4-|
|--2-2-2-2-2-2-2-4-6-6-6-6-6-6-6-6-----------------|

|--------------------------------------------------------------------|
|--------------------------------------------------------------------|
|--------------------------------------------------4-4-4-4-4-4-4-4---|
|--2-2-2-2-2-2-2-2-2-2-2-2-2-2-2-4-6-6-6-6-6-6-6-6-----------------4~|

|--------------------------------------------------------------|
|--------------------------------------------------------------|
|----------------------------------4-4-4-4-4-4-4-3-------------|
|--2-2-2-2-2-2-2-4-6-6-6-6-6-6-6-6-----------------4-4-4-4-4-4-|

|------------------------------------------------------------------|
|------------------------------------------------------------------|
|--3-4-6--6--8-6-4-------------------------------------------------|
|-------------------6-6-6-6-6-6-6-6-4-4-4-4-4-4-4-4-4-4-4-4-4-4-4-4|

|------------------------------------------------------------------|
|------------------------------------------------------------------|
|--6-6-6-6-6-6-6-4-------------------------------------------------|
|------------------6-6-6-6-6-6-6-6-4-4-4-4-4-4-4-4-4-4-4-4-4-4-4-4-|
            
Hard to play? Try these video lessons and learn fast. | Correct




comments powered by Disqus
↑ Back to top | Tablatures and chords are parodies/interpretations of the original songs. You may use it for private study, scholarship, research or language learning purposes only