» » »

James Morrison, Broken Strings Bass tabs (ver.1)

Artists:  A B C D E F G H I J K L M N O P Q R S T U V W X Y Z # 

Broken Strings Bass tabs (ver.1)

James Morrison Tabs
 Rating:
3/5 (6 votes)
Broken Strings lessons Tabs too difficult? Try these video lessons and learn fast
                BROKEN STRINGS
---------------

hey, this is my first tab. i noticed their was no bass tabs for this song so i made one!
sounds right, also i spent hours on it and am pretty sure it is right!



Enjoy :D

 love you. Its so untrue
G------------------------------------------|
D------------------------------------------|
A-----------------------1------------------|
E----62----6426---24---241-241--2----------|

G----------------------------------------------------------------------------|
D----------------------------------------------------------------------------|
A66666664------------44444443-----------66666664------------44444443---------|
E------------66666666------------44444453-----------66666666--44444453-------|

G----------------------------------------------------------------------------|
D----------------------------------------------------------------------------|
A-----------4-------------44444443-----------666666974-----------------------|
E2222222--66666666------------44444453-------------666666664444444444444444--|
(oh what are we doing we are turning into dust)

 Running back through the fire
G-----------------------------------------------------------------------------|
D-----------------------------------------------------------------------------|
A------------------------------------------------------------44444444----6----|
E6666666666666666222222222222222266666666------------22222222-----------------|

G------------------------------------------|
D------------------------------------------|
A------1-----------------------------------|
E---24----241---241----2-------------------|

G-----------------------------------------------------------------------------|
D-----------------------------------------------------------------------------|
A66666664------------44444443-----------66666664------------44444443----------|
E------------66666666------------44444453-----------66666666-44444453---------|

G----------------------------------------------------------------------------|
D----------------------------------------------------------------------------|
A-----------4-------------44444443-----------666666974-----------------------|
E2222222--66666666------------44444453-------------6666666644444444----------|


G-----------------------------------------------------------------------------|
D-----------------------------------------------------------------------------|
A------------------------44444444-----------------44444444--------------------|
E2222222466666666------------222222222222222466666666-------------4-----------|

Oh the truth hurts
G-----------------------------------------------------------------------------|
D-----------------------------------------------------------------------------|
A------------------------44444443------------66666664-4444444444444444666-----|
E2222222466666666------------44444444------------66666666---------------------|



G--------------------------------------------------------|
D--------------------------------------------------------|
A66664---------------------------------------------------|
E--------666666664444444444444444------------------------|
            
Submit corrections

comments powered by Disqus
↑ Back to top | James Morrison Bass for Broken Strings. Lyrics for acoustic guitar and electric guitar. Tablatures and chords are parodies/interpretations of the original songs. You may use it for private study, scholarship, research or language learning purposes only