>
 >
Walk Away

Walk Away Bass Tabs

James Gang - Walk Away chords, tabs, tablatures, lyrics

Guitar lessons | Add/correct | Request | Top 50 tabs Artists:  A B C D E F G H I J K L M N O P Q R S T U V W X Y Z 0-9

Walk Away Bass Tabs – James Gang

CD, Sheet music, Poster

Do you like Walk Away? Share with your friends now
Bass TabsChordsTabsTabs v2Ukulele
----------------------------------------------------------------------------
Walk Away - James Gang


Tuning: Standard, but I have seen them play this a half-step down, but for sake of
this tab, it's in standard tuning :/

slide in at 0:07..This riff repeats over and over again, same note
This is the 'verse'...and you also play it over the main solo.
G|-----------------------------------------------------------------------|
D|-----------------------------------------------------------------------|
A|-----------------------------------------------------------------------|
E|/-x4--4-4--x4----------------------------------------------------------|


chorus: 0:31-0:40
G|--------------------------------------------------------------------|
D|4-4-4-4------------4-4-4-4------------------------------------------|
A|-4-4-4-4--4-4-4-4---4-4-4-4---4-4--/6-6-6-6-------------------------|
E|-----------4-4-4-4-------------4-4----------4-----------------------|

Let's call this the 'post-chorus' at (0:43) -
G|--------------------------------------------------------------------|
D|--------------------------------------------------------------------|
A|--------------------------------------------------------------------|
E|6-77-6--------------------------------------------------------------|

And that's the song! Just these 3 different things. Here's the remaining order:
verse #2
chorus #2
post-chorus #2
main solo (play verse riff)
chorus #3
post-chorus #3
verse #4
chorus #4
post-chorus #4 - Keep repeating this until the end.

Enjoy xD.

| /  slide up
| \  slide down
| h  hammer-on
| p  pull-off
| ~  vibrato
| +  harmonic
| x  Mute note
===============================================================================





Comments


Popular James Gang tabs & chords
Funk 48 Bass Tabs
My Door Is Open Bass Tabs
The Devils Singin Our Song 1 Bass Tabs
All I Have Chords
Bomber Tabs
Bomber Closet Queen Tabs
Funk Tabs
Funk4 Tabs
Woman Tabs
Funk 49 Ukulele


Song lyrics



↑ Back to top | Tablatures and chords are parodies/interpretations of the original songs. You may use it for private study, scholarship, research or language learning purposes only
© 2014 AZChords.com Contact us | Privacy policy | DMCA | Add/correct tabs | Request tabs | Top 50 tabs