» » »

Thanks Bass tabs (ver.1)

Artists:  A B C D E F G H I J K L M N O P Q R S T U V W X Y Z # 

Thanks Bass tabs (ver.1)

James Gang
Rating:
0/5 (0 votes)

Hard to play? Try these video lessons and learn fast.
                James Gang - Thanks (bass tab)
Written by Joe Walsh
Bass played by Dale Peters

The +/. marks at the bottom are for keeping rhythm. The + represents the downbeat, 
and the . marks each quarter note.

INTRO
 4/4
|----------------|----------------|----------------|----------------|
|----------------|----------------|----------------|----------------|
|----------------|----------------|7---7-----------|7---7-----------|
|----------------|----------------|----------------|----------------|
 +   .   .   .    +   .   .   .    +   .   .   .    +   .   .   .


VERSE
                           Repeat 3x
||-----------------|----------------||----------------|---------------|
||o-------------79-|-------------79o||-------------79-|---------------|
||o-----------79---|-----------79--o||-----------79---|---------------|
||-7---------9-----|7---------9-----||7---------9-----|7--------------|
   +   .   .   .    +   .   .   .    +   .   .   .    +   .   .   .

|----------------|----------------|----------------|----------------|
|----------------|-------------79-|----------------|----------------|
|7---7-----------|7---7------79---|7---7-----------|7---7-----------|
|----------------|----------9-----|----------------|----------------|
 +   .   .   .    +   .   .   .    +   .   .   .    +   .   .   .
                                             [1st time: repeat verse]
                                             [2nd time: to bridge]


BRIDGE
|----------------|----------------|----------------|
|------7-------6-|------4-2-------|----7-------6---|
|0--047------46--|----24----------|--47-7----46-6--|
|--------4--4----|2--2------------|5-----5-4-----4-|
 +   .   .   .    +   .   .   .    +   .   .   .

 2/4       4/4
|--------|-----------------|----------------|
|----4---|-----------------|----------------|
|--4---4-|-----------------|2---------------|
|2-------|2----------------|----------------|
 +   .    +   .    .   .    +   .   .   .


VERSE 3
                           Repeat 3x
||-----------------|----------------||----------------|----------------|
||o-------------79-|-------------79o||----------------|----------------|
||o-----------79---|-----------79--o||----------------|----------------|
||-7---------9-----|7---------9-----||7---------------|7---------------|
   +   .   .   .    +   .   .   .     +   .   .   .    +   .   .   .

OUTRO:
|----------------|----------------|----------------|----------------|
|----------------|-------------79-|----------------|----------------|
|7---7-----------|7---7------79---|7---7-----------|7---7-----------|
|----------------|----------9-----|----------------|----------------|
 +   .   .   .    +   .   .   .    +   .   .   .    +   .   .   .

|----------------|----------------||
|----------------|--------7-9-----||
|7---7-----------|7-----------7---||
|----------------|----------------||
 +   .   .   .    +   .   .   .
            
Hard to play? Try these video lessons and learn fast. | Correct




comments powered by Disqus
↑ Back to top | Tablatures and chords are parodies/interpretations of the original songs. You may use it for private study, scholarship, research or language learning purposes only