>
 >
Funk 48

Funk 48 Bass Tabs

James Gang - Funk 48 chords, tabs, tablatures, lyrics

Guitar lessons | Add/correct | Request | Top 50 tabs Artists:  A B C D E F G H I J K L M N O P Q R S T U V W X Y Z 0-9

Funk 48 Bass Tabs – James Gang

CD, Sheet music, Poster

Do you like Funk 48? Share with your friends now
Bass TabsBass Tabs v2Tabs
  Intro: (other intros are variations of the same)
G--------------|
D--7-5---5-----|
A-----5H7-7----|
E----------555-|

  Verse: (other verses are variations of the same)
G------------------|--------------------|
D------------5-5---|-----75-------------|
A------5/7-77-7-7--|-------5H7-53-------|
E--5-55------------|-5-55--------55-----|


  1st Bridge: (the pause)
G------------------|--------------------|
D----7---7-----5-7-|-------5H75---------|
A---7-456-4-5/7-5--|---3H57----5H7-5/3--|
E--5---------------|-55---------------5-|


G------------------|--------------------|
D--7--57----7------|--5-7-77-75---------|
A---57--4567-------|-7-7-7--7--7--------|
E------------------|------------5-55----|

  Verse then 2nd Bridge:
G------------------|--------------------|
D--7---575 --------|--5-7----5----------|
A---5H7---753 -----|-7-7-4567-7 --------|
E------------5-55--|-----------5 -------|

G------------------|---------------------|
D----------57 -----|-7---575 ------------|
A---4-5-777--------|--5H7---5H7-5S3 -----|
E--5-5-5-----------|---------------5 ----|

  Lead (same as a verse with slight variations)
Bass Solo:
G------------------|---------------------|
D--7---575---------|-75---575---5--------|
A---5H7---7-5/3----|---5H7---5H7-7-------|
E--------------55--|--------------555----|

G------------------|--9-8-6-6-79 ---------|
D--5H75------------|-7-7-7-7-7 -----------|
A-7----5^-3--------|----------------------|
E----------35------|------------55--------|

  Back to verse (as above then to last bridge)
G-------------------|--6-7-8-9976 ---------|
D-7---57 -----------|-7-7-7-7 -------------|
A--5H7--753 --------|----------------------|
E----------555 -----|------------555-------|

  The remaining are variations on the first in the tune.
  The changes are subtle so have some fun with the variations.





Comments


Popular James Gang tabs & chords
Funk 48 1 Bass Tabs
Must Be Love 1 Bass Tabs
My Door Is Open 1 Bass Tabs
Thanks Bass Tabs
Woman 1 Bass Tabs
All I Have Chords
Midnight Man Chords
Bomber Closet Queen Tabs
Funk #49 1 Tabs
Funk 49 3 Tabs


Song lyrics



↑ Back to top | Tablatures and chords are parodies/interpretations of the original songs. You may use it for private study, scholarship, research or language learning purposes only
© 2014 AZChords.com Contact us | Privacy policy | DMCA | Add/correct tabs | Request tabs | Top 50 tabs