» » »

James Gang, Funk Tabs (ver.4)

Artists:  A B C D E F G H I J K L M N O P Q R S T U V W X Y Z # 

Funk Tabs (ver.4)

James Gang Tabs
Rating:
0/5 (0 votes)
Funk lessons Tabs too difficult? Try these video lessons and learn fast
                "(8)
Funk # 48
The James Gang

Intro Riff
E-|---------------------------|-------------------------|
B-|---------------------------|-------------------------|
G-|-x-x--0h2--x-5-x-7-x-7b----|---0h2-x-5-x-7-x-8-7-5---|
D-|-x-x--0h2--x-5-x-7-x-7b----|---0h2-x-5-x-7-x-8-7-5---|
A-|---------------------------|-------------------------|
E-|---------------------------|-------------------------|

Verse Riff
E-|---------------------------|-------------------------|
B-|---------------------------|-------------------------|
G-|-x-x--0h2--x-5-x-7-x-7b----|---0h2-x-5-x-7-7-5h7p5---|
D-|-x-x--0h2--x-5-x-7-x-7b----|---0h2-x-5-x-7-7-------7-|
A-|---------------------------|-------------------------|
E-|---------------------------|-------------------------|

Chorus Riff
E-|---------------------------|-------------------------|
B-|---5----5-----x-x--7-5-----|---5----5-----x-x--7-5---|
G-|---5h6--5h6---x-x--7-5h6---|---5h6--5h6---x-x--7-5h6-|
D-|---5----5-----x-x--7-5-----|---5----5-----x-x--7-5---|
A-|---------------------------|-------------------------|
E-|---------------------------|-------------------------|


Fills
Intro Fill
E-|----------------------------|
B-|---8------------------------|
G-|-----7----7--5--------------|
D-|----------------7-----------|
A-|----------------------------|
E-|----------------------------|

Fill Before Second Verse
E-|----------------------------|
B-|--x5-x5-x5-x5---------------|
G-|----------------7-5---------|
D-|----------------------------|
A-|----------------------------|
E-|----------------------------|

First Solo
E-|-15-----------------|-------------------------|-------------------|
B-|----16-13-------13--|-8-----------------------|-------------------|
G-|---------14-14------|---8-5---5h7p5----5------|-------------------|
D-|--------------------|-------7-------7-----7-7-|-------------------|
A-|--------------------|-------------------------|-3h5p3---3---3-3---|
E-|--------------------|-------------------------|-------5---3-----3-|

Outro
E-|---------------|--------------------------------------------------|
B-|---------------|-8------------------------------------------------|
G-|-8p7p5------7--|---8------------------------------7---5-----------|
D-|-------7--7----|-----5---5h7p5-----5---5----7p5h7-----------------|
A-|---------------|-------7-------7-7---7----------------------------|
E-|---------------|--------------------------------------------------|

E-|-----5-------------------------------------------------------------|
B-|-8b----8p5-----------5---8-5---------------------------------------|
G-|-----------7b---5-7b---------7-7b-x-7b--x-7b--x-7b---8p7p5---------|
D-|--------------7--------------------------------------------7-7-----|
A-|---------------------------------------------------------------5-3-|
E-|-------------------------------------------------------------------|

E-|--------------------------------------------------------|
B-|--------------------------------------------------------|
G-|--------------------------------------------------------|
D-|--------------------------------------------------------|
A-|--------------------------------------------------------|
E-|---3/////5----------------------------------------------|
"            

comments powered by Disqus
↑ Back to top | James Gang Tabs for Funk. Lyrics for acoustic guitar and electric guitar. Tablatures and chords are parodies/interpretations of the original songs. You may use it for private study, scholarship, research or language learning purposes only