>
 >
That's No Way To Tell A Lie

That's No Way To Tell A Lie Bass Tabs

James Dean Bradfield - That's No Way To Tell A Lie chords, tabs, tablatures, lyrics

Guitar lessons | Add/correct | Request | Top 50 tabs Artists:  A B C D E F G H I J K L M N O P Q R S T U V W X Y Z 0-9

That's No Way To Tell A Lie Bass Tabs – James Dean Bradfield

CD, Sheet music, Poster

Do you like That's No Way To Tell A Lie? Share with your friends now
Bass TabsTabs
Artist - James Dean Bradfield
Song - That's No Way to Tell A Lie
Album - The Great Western
Track - 1
Bassist - James Dean Bradfield

Intro and First Verse is guitar only

Chorus (0:33)
G---------------------------------|
D---------------------------------|
A-3--3----5--5--------------------|
E-----------------0--0----1--1----| x2

G------------------------|
D------------------------|
A--------/10--8--7--5----|
E-3--3-------------------| x1

Verse
G---------------------------------------------------------------|
D---------------------------------------------------------------|
A-3--5----------------------------------------------------------|
E-------0--1--11--111-1--3--5-0-000-000--3-5-3--1-111-111-111---| x3

Chorus 2
G---------------------------------|
D---------------------------------|
A-3--3----5--5--------------------|
E-----------------0--0----1--1----| x2

Bridge
G---------------------------------------------------------------------|
D---------------------------------------------------------------------|
A-10--10--8-10-8--10--10--8-10-8--12--12--10-12-10--12--12--10-12-10--|
E---------------------------------------------------------------------|

G----------------------------------------------------|
D----------------------------------------------------|
A-8--8--7-8-7--8--8--7-8-7--3--3--2-3-2--3--3--2-3-5-|
E----------------------------------------------------|

G---------------------------------------12h14-14-12----------------------------------|
D------------------------------------------------------------------------------------|
A-/10--10--10-10-12-10-8-10-10--12--12--------------8--8--5/8--8--10--10--10---8-7-5-|
E------------------------------------------------------------------------------------|

Chorus:
G---------------------------------|
D---------------------------------|
A-3--3----5--5--------------------|
E-----------------0--0----1--1----| x4

G------------------------|
D------------------------|
A--------/10--8--7--5----|
E-3--3-------------------| x1

Ending
G---------------------------------------------------------------|
D---------------------------------------------------------------|
A-3--5----------------------------------------------------------|
E-------0--1--11--111-1--3--5-0-000-000--3-5-3--1-111-111-111---| x2

G----------------------------|
D----------------------------|
A-/8---7---5---3~~~~---------|
E----------------------------|





Comments


Popular James Dean Bradfield tabs & chords
An English Gentleman 1 Chords
Emigre Chords
Still A Long Way To Go Chords
Bad Boys Painkillers Tabs
Emigre Tabs
See A Friend In Tears Tabs
That's No Way To Tell A Lie Tabs
To See A Friend In Tears Tabs
Emigre Ukulele
Still A Long Way To Go Ukulele


Song lyrics



↑ Back to top | Tablatures and chords are parodies/interpretations of the original songs. You may use it for private study, scholarship, research or language learning purposes only
© 2014 AZChords.com Contact us | Privacy policy | DMCA | Add/correct tabs | Request tabs | Top 50 tabs