» » »

James Dean Bradfield, Emigre Tabs (ver.1)

Artists:  A B C D E F G H I J K L M N O P Q R S T U V W X Y Z # 

Emigre Tabs (ver.1)

James Dean Bradfield Tabs
 Rating:
4.3/5 (6 votes)
Emigre lessons Tabs too difficult? Try these video lessons and learn fast
1
                James Dean Bradfield - Émigré

Instrument: Guitar
Tuning: eBGDAE



Intro

      C             G          Bm           C
e||--------------------------------------------------------|
B||---7-8///15------7-8--------7-8//15------7-8------------|
G||---------------------7-----------------------9----------|
D||--------------------------------------------------------|
A||--------------------------------------------------------|
E||--------------------------------------------------------|


Verse

     Em      Am           D       C
e||--3--------------------2-----------------------|    |---3---|
B||----------3---1---1--1---------1---0---0--0----|    |---3---|
G||------4--------------------2-------------------|    |---4---|
D||-----------------------0-0---0-----------------| x5 |---5---| After 5th time through
A||----------0-0---0---0----------3-3---3---3-----|    |---5---|
E||--0-0---0--------------------------------------|    |---3---|

(Those are both the melody and bass notes together. You can always play the chords above 
just the melody by leaving out the bass notes.)


Chorus

     B    C    G    D
e||--2----3----3----5-----|
B||--4----5----3----7-----|
G||--4----5----4----7-----|
D||--4----5----5----7-----|
A||--2----3----5----5-----|
E||------------3----------|


Solo

Play the intro through once then this.

e||----------------------7----7-8-7-8-10-11~~-----|
B||--7-5-7-8-7-8-10-8-10---10---------------------|
G||-----------------------------------------------|
D||-----------------------------------------------|
A||-----------------------------------------------|
E||-----------------------------------------------|

e||--11~~~----9--7--5--0-3~~-----/10~~~---11~~~----9--7--5--0-3~~-----/10~~~------|
B||-------------------------------------------------------------------------------|
G||-------------------------------------------------------------------------------|
D||-------------------------------------------------------------------------------|
A||-------------------------------------------------------------------------------|
E||-------------------------------------------------------------------------------|


Then play through the chorus, and to end the song play the intro twice and end on

e||--3--|
B||--3--|
G||--4--|
D||--5--|
A||--5--|
E||--3--|
            
Submit corrections

comments powered by Disqus
↑ Back to top | James Dean Bradfield Tabs for Emigre. Lyrics for acoustic guitar and electric guitar. 1 Tablatures and chords are parodies/interpretations of the original songs. You may use it for private study, scholarship, research or language learning purposes only