» » »

James Brown, Soul Power Bass tabs (ver.1)

Artists:  A B C D E F G H I J K L M N O P Q R S T U V W X Y Z # 

Soul Power Bass tabs (ver.1)

James Brown Tabs
Rating:
0/5 (0 votes)
Hard to play? Try these video lessons and learn fast.
                ----------------------------------------------------------------------------
----------------------------------------------------------------------------

Tuning: Standard

G|-------------------------------------------------------------------------|
D|-----3-----------3-------------------------------------------------------|
A|-5-5-----3-5-5-5-----3-4-------------------------------------------------|
E|-------5-----------5-----------------------------------------------------|

G|---------------7---------------------------------------------------------|
D|-------------------------------------------------------------------------|
A|-5-5-5-5-5-5-5-----------------------------------------------------------|
E|-------------------------------------------------------------------------|

Enjoy! :D
            

comments powered by Disqus
↑ Back to top | James Brown Bass for Soul Power. Lyrics for acoustic guitar and electric guitar. Tablatures and chords are parodies/interpretations of the original songs. You may use it for private study, scholarship, research or language learning purposes only