» » »

James Brown, Papa Don't Take No Mess Tabs (ver.1)

Artists:  A B C D E F G H I J K L M N O P Q R S T U V W X Y Z # 

Papa Don't Take No Mess Tabs (ver.1)

James Brown Tabs
 Rating:
4/5 (4 votes)
Papa Don't Take No Mess lessons Tabs too difficult? Try these video lessons and learn fast
1
                


-------------------------------------------------------------------------------
                             "Papa Don't Take No Mess" - James Brown
-------------------------------------------------------------------------------

This part is played basically the whole song, until you get to the bridge.

e|------------------------------|
B|--10-10--8-8-10p8-10p8--------|
G|--10-10--9-9-9--9-9--9--------|
D|--9--9------------------------|
A|--10-10-----------------------|
E|------------------------------|

Lather, rinse, and REPEAT UNTIL THE BRIDGE.

Bridge:

e|------------------|
B|--10~~-8~~--6~-5~-|
G|--10~~-8~~--6~-5~-|
D|--9~~--7~~--5~-4~-|
A|--10~~-8~~--6~-5~-|
E|------------------|


It's a really easy, simple song.
Rate, fav, and comment.
Thanks, 

Blake.

| /  slide up
| \  slide down
| h  hammer-on
| p  pull-off
| ~  let ring
| +  harmonic
| x  Mute note
===============================================================================
            
Submit corrections

comments powered by Disqus
↑ Back to top | James Brown Tabs for Papa Don't Take No Mess. Lyrics for acoustic guitar and electric guitar. 1 Tablatures and chords are parodies/interpretations of the original songs. You may use it for private study, scholarship, research or language learning purposes only