» » »

James Brown, I Feel Good Bass tabs (ver.2)

Artists:  A B C D E F G H I J K L M N O P Q R S T U V W X Y Z # 

I Feel Good Bass tabs (ver.2)

James Brown Tabs
 Rating:
4/5 (4 votes)
I Feel Good lessons Tabs too difficult? Try these video lessons and learn fast
                ----------------------------------------------------------------------------
			     I feel good - James Brown
----------------------------------------------------------------------------


Tuning: EADG

This is not what they actually play but it works.

Main Riff  x2
G|-------------------------------------------------------------------------|
D|---------------------7--5-------------------------7--5-------------------|
A|---------------------------7----------------------------7----------------|
E|-5--5-4-5-4-5-4-5-------------5--5-4-5-4-5-4-5---------------------------|

G|-------------------------------------------------------------------------|
D|---------------------7--5-------------------------7--5-------------------|
A|-5--5-4-5-4-5-4-5----------7----------------------------7----------------|
E|------------------------------5--5-4-5-4-5-4-5---------------------------|

G|-------------------------------------------------------------------------|
D|----------------------5--9--------------------------5--9-----------------|
A|-7-7--5-5-------4--7-----------7-7--5-5-------4--7-----------------------|
E|-------------5-----------------------------5-----------------------------|

Verse
G|-------------------------------------------------------------------------|
D|-----7-5---5---------------7-5---5---------------------------------------|
A|---------7---7--3~-------------7---7--3~---------------------------------|
E|-5---------------------5-------------------------------------------------|

G|-------------------------------------------------------------------------|
D|-------------------------------------------------------------------------|
A|-3\5-5555-3\-5555------------------3\5-5555-3\5-5-6-7~-------------------|
E|------------------3\5-5555-3\-5555---------------------------------------|

Main Riff
G|-------------------------------------------------------------------------|
D|---------------------7--5-------------------------7--5-------------------|
A|---------------------------7----------------------------7----------------|
E|-5--5-4-5-4-5-4-5-------------5--5-4-5-4-5-4-5---------------------------|

G|-------------------------------------------------------------------------|
D|---------------------7--5-------------------------7--5-------------------|
A|-5--5-4-5-4-5-4-5----------7----------------------------7----------------|
E|------------------------------5--5-4-5-4-5-4-5---------------------------|

Ending
G|-------------------------------------------------------------------------|
D|----------------------5--9-----------------------------------------------|
A|-7-7--5-5-------4--7-----------------------------------------------------|
E|-------------5-----------------------------------------------------------|
|
G|-------------------------------------------------------------------------|
D|----------------------5--9--7--5-----------------------------------------|
A|-7-7--5-5-------4--7--------------7--5-----------------------------------|
E|-------------5--------------------------8~----5~-------------------------|


| /  slide up
| \  slide down
| h  hammer-on
| p  pull-off
| ~  vibrato
| +  harmonic
| x  Mute note
============================================================================
            
Submit corrections

comments powered by Disqus
↑ Back to top | James Brown Bass for I Feel Good. Lyrics for acoustic guitar and electric guitar. Tablatures and chords are parodies/interpretations of the original songs. You may use it for private study, scholarship, research or language learning purposes only