» » »

James Brown, Get Up I Feel Like A Sex Machine Tabs (ver.1)

Artists:  A B C D E F G H I J K L M N O P Q R S T U V W X Y Z # 

Get Up I Feel Like A Sex Machine Tabs (ver.1)

James Brown Tabs
 Rating:
4/5 (12 votes)
Get Up I Feel Like A Sex Machine lessons Tabs too difficult? Try these video lessons and learn fast
                Tuning: Standard

This song is basically very simple but great fun to play. 
Its also good practice for improvising funky licks over the top
Have fun

Intro:

E|-11-11-11-11-11-11-11-11-|
B|-11-11-11-11-11-11-11-11-|
G|-------------------------|
D|-------------------------|
A|-------------------------|
E|-------------------------|

VERSE/CHORUS

E|-x-6--8--6--x---|
B|-x-6--6--6--x---|
G|-x-6--6--6--x---|:- repeat as necessary
D|----------------|
A|----------------|
E|----------------|

BRIDGE

E|-13-13--11-11--9-10-11--|
B|-11-11--11-11--9-10-11--|
G|------------------------|:repeat as necessary
D|------------------------|
A|------------------------|
E|------------------------|

Thats literally it, its kinda obvious when you change between riffs so enjoy

Any comments send to;
            
Submit corrections

comments powered by Disqus
↑ Back to top | James Brown Tabs for Get Up I Feel Like A Sex Machine. Lyrics for acoustic guitar and electric guitar. Tablatures and chords are parodies/interpretations of the original songs. You may use it for private study, scholarship, research or language learning purposes only