» » »

James Bond, 007-Theme 1 Tabs (ver.5)

Artists:  A B C D E F G H I J K L M N O P Q R S T U V W X Y Z # 

007-Theme 1 Tabs (ver.5)

James Bond Tabs
Rating:
0/5 (0 votes)
007-Theme 1 lessons Tabs too difficult? Try these video lessons and learn fast
                Intro: Just play the low E string

Part 1
E|---------|
B|---------|
G|---------|
D|---------|
A|-2-3-4-3-|
E|---------|

Part 2 (This can also be played as a B5 power chord)
a)                                 b)
E|----------------|      E|----------------------|
B|----------------|      B|----------------------|
G|--4-4--4-4--4-4-|      G|--4-4--4-4--4-4-4-4-4-|
D|----------------|      D|----------------------|
A|----------------|      A|----------------------|
E|----------------|      E|----------------------|

Part 3:
                                   Play 3x then:
E|---------------------------------|-------------|       E|--11-10--7-5-7-|
B|---------------------------------|-------------|       B|---------------|
G|---------------------------------|--9-7--------|   OR  G|---------------|
D|---------------------------------|-------9-7-9-|       D|---------------|
A|---------------------------------|-------------|       A|---------------|
E|-0-2-2-2-2-0-0-0-0-3-3-3-3-2-2-0-|-------------|       E|---------------|

Part 4:
E|-------------------------------------------|----------------------------------------|
B|---------4-3-------------------------------|--------4-3-----------------------------|
G|-----0--------0-3-4---0-2-0----------------|-----0--------0-3-4---0-2-0-------------|
D|--2------------------------------4--2------|--2------------------------------4--1-2-|
A|-----------------------------------------4-|----------------------------------------|
E|-------------------------------------------|----------------------------------------|

Part 5:

E|-----------------------------|
B|-----------------------------|
G|-----------------------------|
D|--2-2--2-4-2-4--5-5--5-4-2-4-|
A|-----------------------------|
E|-----------------------------|

Fill: 
E|-19-17-18-19-18-17-19-|
B|----------------------|
G|----------------------|
D|----------------------|
A|----------------------|
E|----------------------|

Part 6:
E|----------|-----------|----------|-----------|
B|----------|-----------|----------|-------4-3-|
G|----------|-----------|----------|----0------|
D|------1-0-|-------4-3-|------8-7-|-2---------|
A|----------|----2------|-0-5------|-----------|
E|-0-3------|-3---------|----------|-----------|

End Chord:
E|-2-|
B|-2-|
G|-0-|
D|-2-|
A|-2-|
E|-0-|

Order:

Intro
Part 1 x2
Part 2a
Part 3 x2
Part 2b
Part 4 x2
Part 5 x3
Fill over Part 2b
Part 1 x4
Part 6
End Chord
            
Submit corrections

comments powered by Disqus
↑ Back to top | James Bond Tabs for 007-Theme 1. Lyrics for acoustic guitar and electric guitar. Tablatures and chords are parodies/interpretations of the original songs. You may use it for private study, scholarship, research or language learning purposes only