» » »

007-Theme 1 Tabs (ver.3)

Artists:  A B C D E F G H I J K L M N O P Q R S T U V W X Y Z # 

007-Theme 1 Tabs (ver.3)

James Bond
Rating:
0/5 (0 votes)

Hard to play? Try these video lessons and learn fast.
                --xX James Bond Theme Song Xx--


This is the original James Bond Theme song it took me and my friend about 4 days
to master all of the different parts of this song but when you learn to play it fast
it puts together pretty nicely.

This is a great song hope ya like it


e----0-0-0-0-0-0-0-0-0-0-0-0-0-0
B---0-0-1-1-1-1-2-2-1-1-1-1-0-0-
G------------------------------- Repeat
D------------------------------- 2X
A-------------------------------
E-------------------------------

e--------------------------------
B--------------------------------
G--------------------------------Repeat 
D-------------------------------- 2X
A--------------------------------
E-0-1-2-2-0-0-0-0-1-3-3-3-3-2-2-2

e-----------2------
B----4-3-----------
G-0-4--------------
D------------------
A-----------1------
E-----------2------
            
Hard to play? Try these video lessons and learn fast. | Correct




comments powered by Disqus
↑ Back to top | Tablatures and chords are parodies/interpretations of the original songs. You may use it for private study, scholarship, research or language learning purposes only