» » »

James Bond Tabs (ver.1)

Artists:  A B C D E F G H I J K L M N O P Q R S T U V W X Y Z # 

James Bond Tabs (ver.1)

James Bond
Rating:
0/5 (0 votes)

Hard to play? Try these video lessons and learn fast.
                (Theme)
This tab is perfect. My guitar teacher introduced this song to me on guitar and it is fun to play.  It's great for beginners and advanced guitar players. It's a great rythmic song. Anyways... listen to the song and play along and just enjoy!

INTRO:
e-7-7----7-7----7-7-7--7-7-|-0-0--0-0--0-0--0-0-|
B--------------------------|-0-0--1-1--2-2--1-1-|
G--------------------------|-0-0--0-0--0-0--0-0-|
D--------------------------|--------------------|
A--------------------------|--------------------|
E------7------7------------|--------------------|


e--------------------------------|
B--------------------------------|
G--------------------------------|
D--------------------------------|
A--------------------------------|x2 then
E-0-22-2-2-0-0-0--0-33-3-3-2-2-2-|

e----------------------------------------|
B----------------------------------------|
G----------------------------------------|
D------------------------------1-0-------|
A----------------------------------2-0-2-|
E-0-22-2-2-0-0-0--0-33-3-3-2-1-----------|


e---------------0-6-7--3h5p-3/2-|---0----||-----0-|
B-----4-3-----0-----------------|-0---2--||-0-4---|
G---0-----0-3-------------------|--------||-------|
D-2-----------------------------|--------||-------|
A-------------------------------|--------||-------|
E-------------------------------|--------||-------|

e-00-0-202-33-3-202-|
B-00-0-202-33-3-202-|
G-------------------|
D-------------------|
A-------------------|
E-------------------|

ENDING:
e---------------2-1------6-5------11-10--2-|
B------4-3----0--------3--------8--------0-|
G----0------0--------4--------9----------0-|
D--2-------------------------------------1-|
A----------------------------------------2-|
E------------------------------------------|
            
Hard to play? Try these video lessons and learn fast. | Correct




comments powered by Disqus
↑ Back to top | Tablatures and chords are parodies/interpretations of the original songs. You may use it for private study, scholarship, research or language learning purposes only