» » »

James Blunt, Youre Beautiful Tabs (ver.1)

Artists:  A B C D E F G H I J K L M N O P Q R S T U V W X Y Z # 

Youre Beautiful Tabs (ver.1)

James Blunt Tabs
 Rating:
4/5 (4 votes)
Youre Beautiful lessons Tabs too difficult? Try these video lessons and learn fast
                -------------------------------------------------------------------------------
                             YOU'RE BEAUTIFUL - James Blunt
-------------------------------------------------------------------------------

Tuning:  capo on 8th fret  (sounds ok without but doesn't match the music)

          It's probably best to print this out and have it all in front of you
          When you're reading it because all the different bits are repeated.
               I have done all the different parts and labeled them 
          And the order that they go is at the bottom.

           I found it hard to put the rhythm in but its something like
            \/\/ \ \/\        (\=Down stroke  /=upstroke)

           (Fill) 

e|--------------------------------------------------------------------------|
B|--------------------------------------------------------------------------|
G|-------------5--4--5-----------5--4--5---7------5--4--5-------------------|
D|--------2-------------------2--------------------------------2----3-------|
A|--------------------------------------------------------------------------|
E|--------------------------------------------------------------------------|
                

             (1)
 
      Eb                              Bb(11)/D
e|------3-3-3---3---3--3-3-------------3-3-3---3---3--3-3--------------------|
B|------3-3-3---3---3--3-3-------------3-3-3---3---3--3-3--------------------|
G|------0-0-0---0---0--0-0-------------2-2-2---2---2--2-2--------------------|
D|------0-0-0---0---0--0-0-------------0-0-0---0---0--0-0--------------------|
A|------2-2-2---2---2--2-2-------------0-0-0---0---0--0-0--------------------|
E|------3-3-3---3---3--3-3-------------2-2-2---2---2--2-2--------------------|

       Cm7                             Ab(9)
e|------3------------------------------3------------------------------------|
B|------3------------------------------3------------------------------------|
G|------0------------------------------0------------------------------------|
D|------2------------------------------2------------------------------------|
A|------2------------------------------3------------------------------------|
E|------0-------------------------------------------------------------------| 
   (the rhythm is like the top bar for every bar)


         (2)

e|------3-----------------------------3------------------------------------|
B|------3-----------------------------3------------------------------------|
G|------0-----------------------------2------------------------------------|
D|------0-----------------------------0------------------------------------|
A|------2-----------------------------0------------------------------------|
E|------3-----------------------------2------------------------------------|  


e|------3-----------------------------3------------------------------------|
B|------3-----------------------------3------------------------------------|
G|------0-----------------------------0------------------------------------|
D|------2-----------------------------2------------------------------------|
A|------2-----------------------------2------------------------------------|
E|------0-----------------------------0------------------------------------| 

         (3)

e|------3-3-3---3---3--3-3-------------3-3-3---3---3--3-3------------------| 
B|------3-3-3---3---3--3-3-------------3-3-3---3---3--3-3------------------| 
G|------0-0-0---0---2--2-2-------------0-0-0---0---0--0-0------------------| 
D|------2-2-2---2---0--0-0-------------2-2-2---2---2--2-2------------------| 
A|------2-2-2---2---0--0-0-------------2-2-2---2---2--2-2------------------| 
E|------0-0-0---0---2--2-2-------------0-0-0---0---0--0-0------------------| 
      you're beautiful                    you're beautiful


e|------3--------3--------------------3------------------------------------|
B|------3--------3--------------------3------------------------------------|
G|------0--------2--------------------0------------------------------------|
D|------2--------0--------------------0------------------------------------|
A|------2--------0--------------------2------------------------------------|
E|------0--------2--------------------3------------------------------------|
   you're beautiful it's true                     I saw..   



       (4)

e|------3-3-3---3---3--3-3-------------3-3-3---3--3--3-3------------------|
B|------3-3-3---3---3--3-3-------------3-3-3---3--3--3-3------------------|
G|------0-0-0---0---2--2-2-------------0-0-0---2--0--0-0------------------|
D|------2-2-2---2---0--0-0-------------0-0-0---0--2--2-2------------------|
A|------2-2-2---2---0--0-0-------------2-2-2---0--2--2-2------------------[
E|------0-0-0---0---2--2-2-------------3-3-3---2--0--0-0------------------| 
            your face in a                     crow ded  place ... and i  


e|------3--------3----------------------3--3--3----------------------------|
B|------3--------3----------------------3--3--3----------------------------|
G|------0--------2----------------------0--2--0----------------------------|
D|------2--------0----------------------2--0--2----------------------------|
A|------3--------0----------------------2--0--3----------------------------|
E|---------------2----------------------0--2-------------------------------| 
don't know what to do                  cos ill never be with u .. yes she caught



         (5)

e|------3--------3----------------------3--3--3------------------------------|
B|------3--------3----------------------3--3--3------------------------------|
G|------0--------2----------------------0--2--0------------------------------|
D|------2--------0----------------------0--0--2------------------------------|
A|------2--------0----------------------2--0--2------------------------------[
E|------0--------2----------------------3--2--0------------------------------| 
  the must be an angel         with a smile on her face


e|------3--------3----------------------3--3--3----------3-------------------|
B|------3--------3----------------------3--3--3----------3-------------------|
G|------0--------2----------------------0--2--0----------0-------------------|
D|------2--------0----------------------0--0--2----------2-------------------|
A|------3--------0----------------------2--0--2----------2-------------------|
E|---------------2----------------------3--2--0----------0-------------------| 
went she thought up I should be with u


e|------3-------------------------------3------------------------------------|
B|------3-------------------------------3------------------------------------|
G|------0-------------------------------0------------------------------------|
D|------2-------------------------------2------------------------------------|
A|------2-------------------------------3------------------------------------|
E|------0--------------------------------------------------------------------|
         but its time to face the truth


e|------3--------3------3----------------------------------------------------|
B|------3--------3------3----------------------------------------------------|
G|------0--------2------0-(hold)---------------------------------------------|
D|------2--------0------0----------------------------------------------------|
A|------2--------x------2----------------------------------------------------|
E|------0--------x------3----------------------------------------------------|
I will never be with   you
and here's the order I all goes in

INTRO

(1)

(2) + (fill)

(2) + (fill) my life is brilliant

(1) my life is brilliant          my love is pure  
    I saw an angel                of that im sure. she ...

(2) smiled at e on the subway     she was with another man
    but i wont lose sleep on that cos i got a plan

(3) youre beautiful               youre beautiful
    youre beautiful               its true. i saw..

(4) your face in a                crowded place and i..
    dont know what to do     cos ill never be with you. 

(1) + (fill)

(1) yes she caught my eye         as i walked on by
    she could see from my face    i was flying high

(2) and i dont think  i'll        see her again but..
    we shared a moment            that will last til the end

(3) youre beautiful               youre beautiful
    youre beautiful               its true.  i saw..

(4) your face in a                crowded place and i..
    dont know what to do        cos ill never be with you

  (here it goes like this a few times)
e|------3---3----
B|------3---3----
G|------0---2----
D|------2---2---
A|------3---3---
E|--------------
        la la la la ala lalaaaa

(3) youre beautiful                youre beautiful
    youre beautiful               its true

(5) there must be an angel        with a smile on her face
    when she thought up that i shuld be with you
    but its time to face the truth
    i will never be with you



and thats it...as best as i can make out anyway
Thanks for looking, its a great song so play it well! :-)


===============================================================================
            
Submit corrections

comments powered by Disqus
↑ Back to top | James Blunt Tabs for Youre Beautiful. Lyrics for acoustic guitar and electric guitar. Tablatures and chords are parodies/interpretations of the original songs. You may use it for private study, scholarship, research or language learning purposes only