» » »

James Blunt, Carry You Home Bass tabs (ver.1)

Artists:  A B C D E F G H I J K L M N O P Q R S T U V W X Y Z # 

Carry You Home Bass tabs (ver.1)

James Blunt Tabs
Rating:
0/5 (0 votes)
Carry You Home lessons Tabs too difficult? Try these video lessons and learn fast
                Tuning: EADG

For the intro and chorus 1, follow the piano.

Intro (She says it's high time...)
G |----------------|   |-----|
D |----------------|x3 |-----|
A |-5~--2~--4~-----|   |-0~--|
E |----------------|   |-----|

Chorus 1 (As strong as you are...)
G |--------------------|
D |-----4--2-----------|
A |-5~--------2~-------| x2
E |---------------3~---|

Verse 1
G |---------------------|   |--------------|
D |---------------------|x5 |--------------|
A |-55555555-2222-44444-|   |55555555--0~--|
E |---------------------|   |--------------|

Chorus 2
G |------------------------------------------|
D |----------444--22222----------------------|
A |-55555555-------------22222222------------| x2
E |-------------------------------33333333---|

G |------------------------|
D |------------------------|
A |-55555555---------------|
E |------------------------|

Bridge (And they were all born pretty...)
G |-----------------------|
D |-----------------------|
A |-5555--7777--00000000--|x2
E |-----------------------|

G |-------------|
D |-------------|
A |-2~--4~--5~--| 
E |-------------|

Break
G |--------------------|         |--------------------|
D |-----4--2-----------|2nd time |---4--2-------------|
A |-5~--------2~-------|         |5~------2~----------|
E |---------------3~---|         |-----------33333333-|

Chorus 3
G |------------------------------------------|
D |----------444--22222----------------------|
A |-55555555-------------22222222------------| x2
E |-------------------------------33333333---|

G |----|
D |----|
A |-5~-| 
E |----|

End
G |----------------|   
D |----------------|x2 
A |-5~--2~--4~-----|   
E |----------------|   

Finish on...
G |-----|
D |-----|
A |-----|  You can finish on an open A but I find the sound's better there.
E |-5~--|


And that's it...

This is the first song that I've learnt by ear so hopefully it'll be of some use to someone.

It annoyed me that I couldn't find any tabs to it, but hey.

Let me know what you think!
            

comments powered by Disqus
↑ Back to top | James Blunt Bass for Carry You Home. Lyrics for acoustic guitar and electric guitar. Tablatures and chords are parodies/interpretations of the original songs. You may use it for private study, scholarship, research or language learning purposes only