» » »

James Blunt, 1973 Bass tabs (ver.2)

Artists:  A B C D E F G H I J K L M N O P Q R S T U V W X Y Z # 

1973 Bass tabs (ver.2)

James Blunt Tabs
Rating:
5/5 (2 votes)
Hard to play? Try these video lessons and learn fast.
                1973– James Blunt

(this is my first attempt tabbing)

G|---------------------------------------------------|
D|-------2---4-------2---4--------2--4-------2-------|  x 2
A|---2h4---4------2h4--4-----5-2h4--4-----2h4--4-----|
E|-2------------0-----------------------5--------5---|

G|--------------------------------------------------------|
D|-------2---4-------2---4--------2--4-------2--3-3-3-3---|
A|---2h4---4------2h4--4-----5-2h4--4-----2h4—4-----------|
E|-2------------0-----------------------5-----------------|

G|------------------------------------------------------------------------------|
D|------2--2------2-2------2-2-----2-2---7----------7----------7-7-4-7-4-7-7--6-|  x2
A|---2h4-4-----2h4-4----2h4-4---2h4—4---5--5-5-5--5--5-5-5----------------------|
E|-2---------2--------0-------0-------------7-7-------7-7----5------------------|

G|---------------------------------------------------|
D|-------2---4-------2---4--------2--4-------2-------|  
A|---2h4---4------2h4--4-----5-2h4--4-----2h4--4-----|
E|-2------------0-----------------------5--------5---|

G|--------------------------------------------------------------------|
D|-------2---------------2-----------------2--------------2---3-3-3-3-|  
A|---2h4---4-0--------2h4--4-0-------5-2h4--4-0--------2h4--4---------|
E|-2-----------4-2---0---------4-2--------------4-2---5---------------|

G|------------------------------------------------------------------------------|
D|------2--2------2-2------2-2-----2-2---7----------7----------7-7-4-7-4-7-7--6-|  x2
A|---2h4-4-----2h4-4----2h4-4---2h4—4---5--5-5-5--5--5-5-5----------------------|
E|-2---------2--------0-------0-------------7-7-------7-7----5------------------|

G|-----------------------------------------------------|
D|-----------------------------------------------------|  
A|-5-5-5--------------7-7-7---5-5-5-------7-7-7--8-8-8-|
E|-------7-7-7--5-5-5---------------7-7-7--------------|

G|--------------------|
D|--4~--2~------------|  x2
A|---------5~---------|
E|------------5~--5-4-|

G|------------------------------------------------------------------------------|
D|------2--2------2-2------2-2-----2-2---7----------7----------7-7-4-7-4-7-7--6-|  x2
A|---2h4-4-----2h4-4----2h4-4---2h4—4---5--5-5-5--5--5-5-5----------------------|
E|-2---------2--------0-------0-------------7-7-------7-7----5------------------|

G|-------------------------/9999999999999999-9~-|
D|----------------------------------------------| 
A|-555555555555555577777777---------------------|
E|----------------------------------------------|
            

comments powered by Disqus
↑ Back to top | James Blunt Bass for 1973. Lyrics for acoustic guitar and electric guitar. Tablatures and chords are parodies/interpretations of the original songs. You may use it for private study, scholarship, research or language learning purposes only