» » »

James Arthur, Faded Tabs (ver.1)

Artists:  A B C D E F G H I J K L M N O P Q R S T U V W X Y Z # 

Faded Tabs (ver.1)

James Arthur Tabs
 Rating:
4/5 (4 votes)
Faded lessons Tabs too difficult? Try these video lessons and learn fast
1
                To sound like the SBTV version which is the sound I think everyone wants to go for the 
bottom E and A strings are a half a step down.
The next string up (D)is half a step up. Nobody's said this yet!!

It's quite difficult so if you want to make it easier just knock off the C# string as 
it's quite a stretch! My First tab! so enjoy!!! Hope it all makes sense!!

anything I miss!

D#|-------------------------------------------------------------------------|
A#|-------------------------------------------------------------------------|
F#|-------------------------------------------------------------------------|
D#|7---7-x-7---7-x-7-xx-9--9-x-9--9-x-9-xx---10-10-x-10--10--x-10-xx--------|
G#|5---5-x-5---5-x-5-xx-7--7-x-7--7-x-7-xx---9--9--x-9---9---x-9--xx--------|
D#|3---3-x-3---3-x-3-xx-5--5-x-5--5-x-5-xx---7--7--x-7---7---x-7--xx--------|

D#|-----------------------------------------------------|
A#|-----------------------------------------------------|
F#|-----------------------------------------------------|
D#|12---12-x-12---12-x-12-xx-9--9-x-9--9-x 9 xx---------|
G#|12---12-x-12---12-x-12-xx-7--7-x-7--7-x-7-xx---------|
D#|10---10-x-10---10-x-10-xx-5--5-x-5--5-x-5-xx---------|



Repeat this for the whole song as it's the same riff over and over!

Lyrics:
I’m faded, I’m faded, I’m not sure if I can make it,
Oh but don’t you cry for me,
Honey I’m not worth it, oh,
Honey I’m not worth it, oh,
Honey I’m not worth it,
Don’t you cry for me.
I’m skipping through the days to come home,
A million conversations, autopilot, steer, flow,
I’m on one one-man mission, eyes down, take note;
I’ve never liked you, stay away from me,
Don’t lock the bolt; this is the great escape from everything I’ve ever hated, from all 
this figuring
This life’s sh*t that got me jaded, faded,
All the time the doubting got me underrated,
This is my mechanism, moving forward, isolated,
Belated superficial gestures of a phony type,
I come alive when I’m incarcerated late at night,
I wish that I could leave this soul destruction every night,
That I could regress in an able-bodied prototype,
If that made sense I’d leave it here, I have no lesser business,
I’m immaterial but I still got things on a wish list,
This is desire; can’t you hear it in my C+ English?
I’d love the finer things but that’s not being realistic, ballistic,
Everybody goes when I’m singing, I’m sick of singing pain
So I’m free, broken, winging,
Coming out my heart purer than the way I’m living,
Maybe I’ll see you, or maybe I’ll just give in.

Yeah, it’s just too much now that I’m all grown up,
I’ve been dragged through the dirt, now I should be blowing up,
Still I’m blowing, still I’m blowing,
And still I don’t know where the hell I should be going,
So I guess it’s just live like this ‘til my mind goes snap,
No love, no drug could ever fill this gap,
Yeah I live for the high until it all floods back,
Like the tears of the years that I can’t get back.

I’m faded, I’m faded, I’m not sure if I can make it,
Oh but don’t you cry for me,
Honey I’m not worth it, oh,
Honey I’m not worth it, oh,
Honey I’m not worth it,
Don’t you cry for me.
            
Submit corrections

comments powered by Disqus
↑ Back to top | James Arthur Tabs for Faded. Lyrics for acoustic guitar and electric guitar. 1 Tablatures and chords are parodies/interpretations of the original songs. You may use it for private study, scholarship, research or language learning purposes only