>
 >
Wasting Away

Wasting Away Guitar Tabs

James - Wasting Away chords, tabs, tablatures, lyrics

Guitar lessons | Add/correct | Request | Top 50 tabs Artists:  A B C D E F G H I J K L M N O P Q R S T U V W X Y Z 0-9

Wasting Away Guitar Tabs – James

CD, Sheet music, Poster

Do you like Wasting Away? Share with your friends now
Tabs
-------------------------------------------------------------------------------
-------------------------------------------------------------------------------

Tuning:standard (6E 5A 4D 3G 2B 1e)

hi im Wuggle15 (aka James Barton) and these are my own songs by the way

Intro
e|--------------------------------------------------------------------------|
B|-------------------------------------9-10-12--10-9-7--9-10-12--10-9-77----|
G|--------------------------------------------------------------------------|
D|-10-11-13--11-10-8--10-11-13--11-10-8-------------------------------------|
A|--------------------------------------------------------------------------|
E|--------------------------------------------------------------------------|

e|---------77-99~-----------------------------------------------------------|
B|-99-1010------------------------------------------------------------------|
G|--------------------------------------------------------------------------|
D|--------------------------------------------------------------------------|
A|--------------------------------------------------------------------------|
E|--------------------------------------------------------------------------|

tap the last notes for every hammer on bit
e|9h11h9h11h9h12(x5)-5h7h5h7h5h9(x5)-1h3h1h3h1h5(x5)h2p0h2p0h3---------------|
B|------------------------------------------------------------h2p0h2p0h3-----|
G|---------------------------------------------------------------------------|
D|---------------------------------------------------------------------------|
A|---------------------------------------------------------------------------|
E|----------------------------------------------------------------------h2p0-|

Bridge x4
e|--------------------------------------------------------------------------|
B|--------------------------------------------------------------------------|
G|--------------------------------------------------------------------------|
D|-2--2-2-2-2-2-2-2-2-3-----------------------------------------------------|
A|-2--2-2-2-2-2-2-2-2-3-----------------------------------------------------|
E|-0--0-0-0-0-0-0-0-0-0-----------------------------------------------------|

slide the pick up the neck inbetween the E and A string
e|--------------------------------------------------------------------------|
B|--------------------------------------------------------------------------|
G|--------------------------------------------------------------------------|
D|--------------------------------------------------------------------------|
A|--//////////////////------------------------------------------------------|
E|-//////////////////-------------------------------------------------------|

Verse tremelo pick
e|--------------------------------------------------------------------------|
B|-------------------------------------9-10-12--10-9-7--9-10-12--10-9-77----|
G|--------------------------------------------------------------------------|
D|-10-11-13--11-10-8--10-11-13--11-10-8-------------------------------------|
A|--------------------------------------------------------------------------|
E|--------------------------------------------------------------------------|

e|---------77-99~-----------------------------------------------------------|
B|-99-1010------------------------------------------------------------------|
G|--------------------------------------------------------------------------|
D|--------------------------------------------------------------------------|
A|--------------------------------------------------------------------------|
E|--------------------------------------------------------------------------|

e|9-11-9-11-9-12(x5)-5-7-5-7-5-9(x5)-1-3-1-3-1-5(x5)h2p0h2p0-3---------------|
B|------------------------------------------------------------h2p0h2p0-3-----|
G|---------------------------------------------------------------------------|
D|---------------------------------------------------------------------------|
A|---------------------------------------------------------------------------|
E|----------------------------------------------------------------------h2p0-|

Bridge x4
e|--------------------------------------------------------------------------|
B|--------------------------------------------------------------------------|
G|--------------------------------------------------------------------------|
D|-2--2-2-2-2-2-2-2-2-3-----------------------------------------------------|
A|-2--2-2-2-2-2-2-2-2-3-----------------------------------------------------|
E|-0--0-0-0-0-0-0-0-0-0-----------------------------------------------------|

slide the pick up the neck inbetween the E and A string
e|--------------------------------------------------------------------------|
B|--------------------------------------------------------------------------|
G|--------------------------------------------------------------------------|
D|--------------------------------------------------------------------------|
A|--//////////////////------------------------------------------------------|
E|-//////////////////-------------------------------------------------------|

Re-Intro
e|--------------------------------------------------------------------------|
B|-------------------------------------9-10-12--10-9-7--9-10-12--10-9-77----|
G|--------------------------------------------------------------------------|
D|-10-11-13--11-10-8--10-11-13--11-10-8-------------------------------------|
A|--------------------------------------------------------------------------|
E|--------------------------------------------------------------------------|

e|---------77-99~-----------------------------------------------------------|
B|-99-1010------------------------------------------------------------------|
G|--------------------------------------------------------------------------|
D|--------------------------------------------------------------------------|
A|--------------------------------------------------------------------------|
E|--------------------------------------------------------------------------|

tap the last notes for every hammer on bit
e|9h11h9h11h9h12(x5)-5h7h5h7h5h9(x5)-1h3h1h3h1h5(x5)h2p0h2p0h3---------------|
B|------------------------------------------------------------h2p0h2p0h3-----|
G|---------------------------------------------------------------------------|
D|---------------------------------------------------------------------------|
A|---------------------------------------------------------------------------|
E|----------------------------------------------------------------------h2p0-|

slide the pick up the neck inbetween the E and A string
e|--------------------------------------------------------------------------|
B|--------------------------------------------------------------------------|
G|--------------------------------------------------------------------------|
D|--------------------------------------------------------------------------|
A|--//////////////////------------------------------------------------------|
E|-//////////////////-------------------------------------------------------|

Solo
e|-----------------------------------------12-14-15-------------------------|
B|---------------------------------12-13-14---------------------------------|
G|-------------------------12-14-15-----------------------------------------|
D|-----------------12-14-15-------------------------------------------------|
A|---------12-13-14---------------------------------------------------------|
E|-12-13-14-----------------------------------------------------------------|

Hammer on the 17 with your right hand
e|-----------------------------------------12-14-15h17~---------------------|
B|---------------------------------12-13-14---------------------------------|
G|-------------------------12-14-15-----------------------------------------|
D|-----------------12-14-15-------------------------------------------------|
A|---------12-13-14---------------------------------------------------------|
E|-12-13-14-----------------------------------------------------------------|

tap the last notes for every hammer on bit
e|9h11h9h11h9h12(x5)-5h7h5h7h5h9(x5)-1h3h1h3h1h5(x5)h2p0h2p0h3---------------|
B|------------------------------------------------------------h2p0h2p0h3-----|
G|---------------------------------------------------------------------------|
D|---------------------------------------------------------------------------|
A|---------------------------------------------------------------------------|
E|----------------------------------------------------------------------h2p0-|

Bridge x4
e|--------------------------------------------------------------------------|
B|--------------------------------------------------------------------------|
G|--------------------------------------------------------------------------|
D|-2--2-2-2-2-2-2-2-2-3-----------------------------------------------------|
A|-2--2-2-2-2-2-2-2-2-3-----------------------------------------------------|
E|-0--0-0-0-0-0-0-0-0-0-----------------------------------------------------|

slide the pick up the neck inbetween the E and A string
e|--------------------------------------------------------------------------|
B|--------------------------------------------------------------------------|
G|--------------------------------------------------------------------------|
D|--------------------------------------------------------------------------|
A|--//////////////////------------------------------------------------------|
E|-//////////////////-------------------------------------------------------|

e|--------------------------------------------------------------------------|
B|-------------------------------------9-10-12--10-9-7--9-10-12--10-9-7-----|
G|--------------------------------------------------------------------------|
D|-10-11-13--11-10-8--10-11-13--11-10-8-------------------------------------|
A|--------------------------------------------------------------------------|
E|--------------------------------------------------------------------------|

e|--------------------------------------------------------------------------|
B|-------------------------------------9-10-12--10-9-7--9-10-12--10-9-7-----|
G|--------------------------------------------------------------------------|
D|-10-11-13--11-10-8--10-11-13--11-10-8--------------------------------7----|
A|-----------------------------------------------------------------------2--|
E|-----------------------------------------------------------------------0--|

Outro
e|---------------------------------------------------------------------------|
B|---------------------------------------------------------------------------|
G|---------------------------------------------------------------------------|
D|---------------------------------------------------------------------------|
A|-5-------5---7---4---5-----------------------------------------------------|
E|-3---0---3---5---2---3-----------------------------------------------------|
on the last chord hold it and start to turn the volume down on your guitar intill its 
off

| /  slide the pick up the neck
| h  hammer-on
| p  pull-off
| ~  let note ring
===============================================================================





Comments


Popular James tabs & chords
Lost A Friend Chords
She’S A Star 1 Chords
Shining Chords
Tomorow Chords
Who Are You Chords
Always Fighting Tabs
Getting Away With It Tabs
Jedin Bondhu Chole Jabo Ukulele
Maa Ukulele
Rabbit Hole Ukulele


Song lyrics



↑ Back to top | Tablatures and chords are parodies/interpretations of the original songs. You may use it for private study, scholarship, research or language learning purposes only
© 2014 AZChords.com Contact us | Privacy policy | DMCA | Add/correct tabs | Request tabs | Top 50 tabs