» » »

The Transmition Tabs (ver.1)

Artists:  A B C D E F G H I J K L M N O P Q R S T U V W X Y Z # 

The Transmition Tabs (ver.1)

James
Rating:
5/5 (1 vote)

Hard to play? Try these video lessons and learn fast.
                -------------------------------------------------------------------------------
                             The Transimition - James
-------------------------------------------------------------------------------

Tuning:1e 2B 3G 4D 5A 6E

intro X4
e|--------------------------------------------------------------------------|
B|--------------------------------------------------------------------------|
G|--------------------------------------------------------------------------|
D|--9-7-79------------------------------------------------------------------|
A|--7-5-57------------------------------------------------------------------|
E|--------------------------------------------------------------------------|

CHORUS X4
e|--------------------------------------------------------------------------|
B|--------------------------------------------------------------------------|
G|--------------------------------------------------------------------------|
D|-----7-7-9-9--------------------------------------------------------------|
A|-9-9-5-5-7-7-9999---------------------------------------------------------|
E|-7-7---------7777---------------------------------------------------------|

Verse X4
e|-----------------------------------------------------------------------|
B|-----------------------------------------------------------------------|
G|-----------------------------------------------------------------------|
D|-----------------------------------------------------------------------|
A|--4-5------------------------------------------------------------------|
E|-3---------------------------------------------------------------------|

END OF VERSE
straight after you play it the fourth time
e|--------------------------------------------------------------------------|
B|--------------------------------------------------------------------------|
G|--------------------------------------------------------------------------|
D|--3h4---------------------------------------------------------------------|
A|--------------------------------------------------------------------------|
E|--------------------------------------------------------------------------|

CHORUS X4
Verse X4
END of VERSE X1

VERSE2 X4
played straight after end of verse
e|--------------------------------------------------------------------------|
B|--------------------------------------------------------------------------|
G|--------------------------------------------------------------------------|
D|------3-------------------------------------------------------------------|
A|---4-5--------------------------------------------------------------------|
E|--3-----------------------------------------------------------------------|

END of Verse2
straight after you play end of verse2 forth time
e|--------------------------------------------------------------------------|
B|--------------------------------------------------------------------------|
G|-----3h4------------------------------------------------------------------|
D|--3h4---------------------------------------------------------------------|
A|--------------------------------------------------------------------------|
E|--------------------------------------------------------------------------|

CHORUS X4

SOLO X2
e|-----------------------------0-7h9h9h9h9----------------------------------|
B|-------------------------8-7-------------7-8------------------------------|
G|--7/12-11\9-10-7h9h9h9h9---------------------9-7-7h9h9h9h9-7h9h9h9h9------|
D|--------------------------------------------------------------------------|
A|--------------------------------------------------------------------------|
E|--------------------------------------------------------------------------|

END of Solo
e|--------------------------------------------------------------------------|
B|--------------------------------------------------------------------------|
G|--7h9-7h9-7h9-7h9-7h9-7h9-7h9-7h9-----------------------------------------|
D|--------------------------------------------------------------------------|
A|--------------------------------------------------------------------------|
E|--------------------------------------------------------------------------|

CHORUS X4

| /  slide up
| \  slide down
| h  hammer-on
===============================================================================
            
Hard to play? Try these video lessons and learn fast. | Correct




comments powered by Disqus
↑ Back to top | Tablatures and chords are parodies/interpretations of the original songs. You may use it for private study, scholarship, research or language learning purposes only