» » »

Fallen Tabs (ver.1)

Artists:  A B C D E F G H I J K L M N O P Q R S T U V W X Y Z # 

Fallen Tabs (ver.1)

Imagine Dragons
Rating:
0/5 (0 votes)

Hard to play? Try these video lessons and learn fast.
                INTRO

Electric 1

E|---------|
B|---------|
G|---------|
D|-7-9-----| X4
A|-----7-9-|
D|---------|

VERSE

Electric 1
(play intro twice then...)
E|---------|
B|---------|
G|---------|
D|-----7-9-|
A|-7-9-----|
D|---------|

Electric 2
(listen to song for pattern)
E|-------|
B|-------|
G|-6--11-|
D|-x--x--|
A|-4--9--|
D|-------|

PRE-CHORUS

Electric 1

E|---------|
B|---------|
G|---------|
D|-----7-9-|
A|-7-9-----|
D|---------|

Electric 3
(listen to song to know when to play it, it can be played with Electric 1)
E|------------|
B|------------|
G|------------|
D|-11-9-7---7-|
A|--------9---|
D|------------|


Electric 2

E|-----------|
B|-----------|
G|-666-9--11-|
D|-xxx-x--x--|
A|-444-7--9--|
D|-----------|

CHORUS

Electric 1
  (picked)                      (picking pattern)
E|-----------   -------|      |-------------------|
B|-----------   -------|      |-------------------|
G|-14--11--9-   -7--14-|      |-----x-------x-----|
D|-14--11--9-x2 -7--14-| ---> |---x---x---x---x---|
A|-12--9---7-   -5--12-|      |-x-------x-------x-|
D|-----------   -------|      |-------------------|

Electric 2

E|---------    ----------|
B|---------    ----------|
G|---------    ----------|
D|-7--4--2- x2 -7--12--7-|
A|-7--4--2-    -7--12--7-|
D|-7--4--2-    -7--12--7-|

VERSE

PRE-CHORUS

CHORUS

BRIDGE (just singing)

CHORUS 
till the end with some alternate picking, should be easy to figure out :)
            
Hard to play? Try these video lessons and learn fast. | Correct




comments powered by Disqus
↑ Back to top | Tablatures and chords are parodies/interpretations of the original songs. You may use it for private study, scholarship, research or language learning purposes only