» » »

James, Lighting My Fire Tabs (ver.1)

Artists:  A B C D E F G H I J K L M N O P Q R S T U V W X Y Z # 

Lighting My Fire Tabs (ver.1)

James Tabs
 Rating:
4/5 (4 votes)
Lighting My Fire lessons Tabs too difficult? Try these video lessons and learn fast
                -------------------------------------------------------------------------------
-------------------------------------------------------------------------------

Tuning:Standard (1e 2B 3G 4D 5A 6E)

INTRO x2
e|--------------------------------------------------------------------------|
B|--------------------------------------------------------------------------|
G|--------------------------------------------------------------------------|
D|-6-8-8---6-8-8---6-8-8---6-8-8-----8-10-10---8-10-10---8-10-10------------|
A|-------6-------6-------6-------6-8---------8---------8---------8-10-------|
E|--------------------------------------------------------------------------|

END INTRO x1
e|--------------------------------------------------------------------------|
B|--------------------------------------------------------------------------|
G|--------------------------------------------------------------------------|
D|-6-8-8---6-8-8---6-8-8---6-8-8--------------------------------------------|
A|-------6-------6-------6-------6-8----------------------------------------|
E|--------------------------------------------------------------------------|

BRIDGE x4
e|--------------------------------------------------------------------------|
B|--------------------------------------------------------------------------|
G|--------------------------------------------------------------------------|
D|--------------------------------------------------------------------------|
A|-5-7-7-7-7-7-7-7-7-7-7-7-7-7-7-7-7----------------------------------------|
E|-3-5-5-5-5-5-5-5-5-5-5-5-5-5-5-5-5----------------------------------------|
     X X X X X X X X X X X X X X X

CHORUS x1
e|---------------------------------------------------------------------------|
B|---------------------------------------------------------------------------|
G|-4-4-4-4-4-4-4-4-4-4-4-4-4-4-4-4-------------------------------------------|
D|-5-5-5-5-5-5-5-5-5-5-5-5-5-5-5-5-------------------------------------------|
A|-5-5-5-5-5-5-5-5-5-5-5-5-5-5-5-5-3-3-3-3-3-3-3-3-3-3-3-3-3-3-3-3-----------|
E|-3-3-3-3-3-3-3-3-3-3-3-3-3-3-3-3-1-1-1-1-1-1-1-1-1-1-1-1-1-1-1-1-----------|

e|--------------------------------------------------------------------------|
B|--------------------------------------------------------------------------|
G|--------------------------------------------------------------------------|
D|--------------------------------------------------------------------------|
A|-7-7-7-7-7-7-7-7-7-7-7-7-7-7-7-7-4-4-4-4-4-4-4-4-4-4-4-4-4-4-4-4----------|
E|-5-5-5-5-5-5-5-5-5-5-5-5-5-5-5-5-2-2-2-2-2-2-2-2-2-2-2-2-2-2-2-2----------|

VERSE x3
e|--------------------------------------------------------------------------|
B|--------------------------------------------------------------------------|
G|-7-9--------------7-9-----------------------------------------------------|
D|-----10-7-9-7--5------10-7-9-10--12---------------------------------------|
A|--------------------------------------------------------------------------|
E|--------------------------------------------------------------------------|

INTRO x1
e|--------------------------------------------------------------------------|
B|--------------------------------------------------------------------------|
G|--------------------------------------------------------------------------|
D|-6-8-8---6-8-8---6-8-8---6-8-8-----8-10-10---8-10-10---8-10-10------------|
A|-------6-------6-------6-------6-8---------8---------8---------8-10-------|
E|--------------------------------------------------------------------------|

END INTRO x1
e|--------------------------------------------------------------------------|
B|--------------------------------------------------------------------------|
G|--------------------------------------------------------------------------|
D|-6-8-8---6-8-8---6-8-8---6-8-8--------------------------------------------|
A|-------6-------6-------6-------6-8----------------------------------------|
E|--------------------------------------------------------------------------|

BRIDGE x4
e|--------------------------------------------------------------------------|
B|--------------------------------------------------------------------------|
G|--------------------------------------------------------------------------|
D|--------------------------------------------------------------------------|
A|-5-7-7-7-7-7-7-7-7-7-7-7-7-7-7-7-7----------------------------------------|
E|-3-5-5-5-5-5-5-5-5-5-5-5-5-5-5-5-5----------------------------------------|
     X X X X X X X X X X X X X X X

CHORUS x2
e|---------------------------------------------------------------------------|
B|---------------------------------------------------------------------------|
G|-4-4-4-4-4-4-4-4-4-4-4-4-4-4-4-4-------------------------------------------|
D|-5-5-5-5-5-5-5-5-5-5-5-5-5-5-5-5-------------------------------------------|
A|-5-5-5-5-5-5-5-5-5-5-5-5-5-5-5-5-3-3-3-3-3-3-3-3-3-3-3-3-3-3-3-3-----------|
E|-3-3-3-3-3-3-3-3-3-3-3-3-3-3-3-3-1-1-1-1-1-1-1-1-1-1-1-1-1-1-1-1-----------|

e|--------------------------------------------------------------------------|
B|--------------------------------------------------------------------------|
G|--------------------------------------------------------------------------|
D|--------------------------------------------------------------------------|
A|-7-7-7-7-7-7-7-7-7-7-7-7-7-7-7-7-4-4-4-4-4-4-4-4-4-4-4-4-4-4-4-4----------|
E|-5-5-5-5-5-5-5-5-5-5-5-5-5-5-5-5-2-2-2-2-2-2-2-2-2-2-2-2-2-2-2-2----------|

SOLO
e|15*20-17--17-----20-17--17-----20-17--17-----20-17--17---------------------|
B|--------20--20-17-----20--20-17-----20--20-17-----20--20-17b19r17b19r17b19-|
G|---------------------------------------------------------------------------|
D|---------------------------------------------------------------------------|
A|---------------------------------------------------------------------------|
E|---------------------------------------------------------------------------|

e|--------------------------------------------------------------------------|
B|-20-17--17-----20-17--17-----20-17--17-----20-17--17----------------------|
G|------20--20-17-----20--20-17-----20--20-17-----20--20-17/23b-------------|
D|--------------------------------------------------------------------------|
A|--------------------------------------------------------------------------|
E|--------------------------------------------------------------------------|

TREMELO PICK JUST THESE NOTES!
e|--------------------------------------------------------------------------|
B|--------------------------------------------------------------------------|
G|-12-14-15-14-15-17-19-17-17-19-21-19-21-23-24-----------------------------|
D|--------------------------------------------------------------------------|
A|--------------------------------------------------------------------------|
E|--------------------------------------------------------------------------|

STOP TREMELO PICKING!

VERSE x3
e|--------------------------------------------------------------------------|
B|--------------------------------------------------------------------------|
G|-7-9--------------7-9-----------------------------------------------------|
D|-----10-7-9-7--5------10-7-9-10--12---------------------------------------|
A|--------------------------------------------------------------------------|
E|--------------------------------------------------------------------------|

INTRO x2
e|--------------------------------------------------------------------------|
B|--------------------------------------------------------------------------|
G|--------------------------------------------------------------------------|
D|-6-8-8---6-8-8---6-8-8---6-8-8-----8-10-10---8-10-10---8-10-10------------|
A|-------6-------6-------6-------6-8---------8---------8---------8-10-------|
E|--------------------------------------------------------------------------|

END INTRO x1
e|--------------------------------------------------------------------------|
B|--------------------------------------------------------------------------|
G|--------------------------------------------------------------------------|
D|-6-8-8---6-8-8---6-8-8---6-8-8--------------------------------------------|
A|-------6-------6-------6-------6-8----------------------------------------|
E|--------------------------------------------------------------------------|

CHORUS x2
e|---------------------------------------------------------------------------|
B|---------------------------------------------------------------------------|
G|-4-4-4-4-4-4-4-4-4-4-4-4-4-4-4-4-------------------------------------------|
D|-5-5-5-5-5-5-5-5-5-5-5-5-5-5-5-5-------------------------------------------|
A|-5-5-5-5-5-5-5-5-5-5-5-5-5-5-5-5-3-3-3-3-3-3-3-3-3-3-3-3-3-3-3-3-----------|
E|-3-3-3-3-3-3-3-3-3-3-3-3-3-3-3-3-1-1-1-1-1-1-1-1-1-1-1-1-1-1-1-1-----------|

e|--------------------------------------------------------------------------|
B|--------------------------------------------------------------------------|
G|--------------------------------------------------------------------------|
D|--------------------------------------------------------------------------|
A|-7-7-7-7-7-7-7-7-7-7-7-7-7-7-7-7-4-4-4-4-4-4-4-4-4-4-4-4-4-4-4-4----------|
E|-5-5-5-5-5-5-5-5-5-5-5-5-5-5-5-5-2-2-2-2-2-2-2-2-2-2-2-2-2-2-2-2----------|

END INTRO x1
e|--------------------------------------------------------------------------|
B|--------------------------------------------------------------------------|
G|--------------------------------------------------------------------------|
D|-6-8-8---6-8-8---6-8-8---6-8-8--------------------------------------------|
A|-------6-------6-------6-------6-8----------------------------------------|
E|--------------------------------------------------------------------------|

OUTRO x1
e|--------------------------------------------------------------------------|
B|--------------------------------------------------------------------------|
G|--------------------------------------------------------------------------|
D|------------5---5-8-7-5---------------------------------------------------|
A|------------3-0-3-6-5-3---------------------------------------------------|
E|-7-77777777---------------------------------------------------------------|
   X XXXXXXXX

| /  slide up
| *  harmonic
| X  palm mute
            
Submit corrections

comments powered by Disqus
↑ Back to top | James Tabs for Lighting My Fire. Lyrics for acoustic guitar and electric guitar. Tablatures and chords are parodies/interpretations of the original songs. You may use it for private study, scholarship, research or language learning purposes only