» » »

Laid Bass tabs (ver.1)

Artists:  A B C D E F G H I J K L M N O P Q R S T U V W X Y Z # 

Laid Bass tabs (ver.1)

James
Rating:
0/5 (0 votes)

Hard to play? Try these video lessons and learn fast.
                Part: Bass
Tuning: Standard

Intro

G|--------|--------|--------|----------------|----------------|
D|--------|--------|--------|----------------|----------------|
A|--------|--------|--------|----------------|----------------|
E|3r------|3r------|3r------|1-1-1-1-1-1-1-1-|3-3-3-3-3-3-3-3-|

Verse

G|----------------|----------------|----------------|----------------|
D|----------------|----------------|----------------|----------------|
A|----------------|----------------|----------------|----------------|
E|8---8---8---8---|3---3---3---3---|8---8---8---8---|3---3---3---3---|

 |----------------|----------------|----------------|----------------|
 |----------------|----------------|----------------|----------------|
 |----------------|----------------|----------------|----------------|
 |8---8---8---8---|3---3---3---3---|1-1-1-1-1-1-1-1-|3-3-3-3-3-3-3-3-|

Verse Variations

G|----------------|----------------|----------------|----------------|
D|----------------|----------------|----------------|----------------|
A|----------------|----------------|----------------|----------------|
E|8---8---8---8---|3-3-3-3-3-3-3-3-|8---8---8---8---|3-------3-------|

 |----------------|----------------|----------------|----------------|
 |----------------|----------------|----------------|----------------|
 |----------------|----------------|----------------|----------------|
 |8---8---8---8---|3-3-3-3-3-3-3-3-|1-1-1-1-1-1-1-1-|3-3-3-3-3-3-3-3-|


The Verse variation occur a several different places in the song.

After the first verse you can interchange them anywhere you want.
            
Hard to play? Try these video lessons and learn fast. | Correct




comments powered by Disqus
↑ Back to top | Tablatures and chords are parodies/interpretations of the original songs. You may use it for private study, scholarship, research or language learning purposes only